» » »

Courtney Love, Hello Tabs (ver.2)

Artists:  A B C D E F G H I J K L M N O P Q R S T U V W X Y Z # 

Hello Tabs (ver.2)

Courtney Love Tabs
 Rating:
4/5 (4 votes)
Hello lessons Tabs too difficult? Try these video lessons and learn fast
1
                -------------------------------------------------------------------------------
                             HELLO – Courtney Love
-------------------------------------------------------------------------------
Ill include this in the whole album (America’s Sweetheart) when im done tabing them
almost there.so if you have any corrections please e-mail me,but i doubt you will find any
cause im very confident this tab is somewhere between %99 and %100 correct.
anyway heres another great song by Courtney,or mostly by her anyway.maybe its just me or
exaggerating a little but her dress is always on fire!gotta say the lyrics are pretty
to this song.and hey,i don’t wanna do all the work,so you people better start coming up
more tabs for courtneys songs!i cant believe how few there are on here!all you lot
do is sit around and get everything off the net to play and you don’t put anything on
you can play these songs then your just as able to tab them.coz as nice as it would be,i
think courtneys gonna put them all on here - but hey theres an idea.and for those of you 
are tabing,PLEASE!MORE STUFF FROM PRETTY ON THE INSIDE!oh,and Courtney,please
writing,youre awesome!
Ahh,theres a 2nd guitar in this song,you can hear when it comes in.all it does thats
is that it plays the full power/bar chords,or mostly anyway,i think.sorry,not much help.


Tuning:standard

e|-------------------------------------------|
B|-------------------------------------------|
G|-----------------------9-9-9-9-x-----------|
D|-11-11-11-11-x-7-7-7-x-9-9-9-9-x-9-9-9-x---|
A|-11-11-11-11-x-7-7-7-x-7-7-7-7-x-9-9-9-x---|
E|-9--9—-9—-9—-x-5-5-5-x-----------7-7-7-x---|
SHUT UP!im about to take all you
innocence for free and in
the end your gonna wanna pay me
any and everything
SHUT UP!im about to tell you
how ive won the war i wont
tell you what or how or when and in
the end youll never ever ever ask what for

e|---------------------------------------------------------------------------|
B|---------------------------------------------------------------------------|
G|---------------------------------------------------------------------------|
D|-11-11-11-11-11-11-11-11-9-9-9-9-9-9-9-9-7-7-7-7-7-7-7-7-7-7-7-7-8-8-9-9---|
A|-11-11-11-11-11-11-11-11-9-9-9-9-9-9-9-9-7-7-7-7-7-7-7-7-7-7-7-7-8-8-9-9---|
E|-9--9--9--9--9--9--9--9--7-7-7-7-7-7-7-7-5-5-5-5-5-5-5-5-5-5-5-5-6-6-7-7---|
(hello hello hello hello hello hello hello)
why you talking to me
breath baby breath

e|-------------------------------------------|
B|-------------------------------------------|
G|-----------------------9-9-9-9-x-----------|
D|-11-11-11-11-x-7-7-7-x-9-9-9-9-x-9-9-9-x---|
A|-11-11-11-11-x-7-7-7-x-7-7-7-7-x-9-9-9-x---|
E|-9--9—-9—-9—-x-5-5-5-x-----------7-7-7-x---|
SHUT UP!im about to tell you about the
difference youll never make how
to win the war with no regrets
no hurt no pain no shame
SHUT UP!im about to tell you some
secrets youll never know
now don’t ask why don’t moan don’t cry don’t
even ask where this is going to go no no

e|---------------------------------------------------------------------------|
B|---------------------------------------------------------------------------|
G|---------------------------------------------------------------------------|
D|-11-11-11-11-11-11-11-11-9-9-9-9-9-9-9-9-7-7-7-7-7-7-7-7-7-7-7-7-8-8-9-9---|
A|-11-11-11-11-11-11-11-11-9-9-9-9-9-9-9-9-7-7-7-7-7-7-7-7-7-7-7-7-8-8-9-9---|
E|-9--9--9--9--9--9--9--9--7-7-7-7-7-7-7-7-5-5-5-5-5-5-5-5-5-5-5-5-6-6-7-7---|
(hello hello hello hello hello hello hello)
why you talking to me
HEY!HEY!HEY!breath baby breath

e|----------------------------------------------------------|
B|----------------------------------------------------------|
G|----------------------------------------------------------|
D|-11------14------7-------8-8-9-9--11------9------7--------|
A|-11-(x8)-14-(x8)-7-(x12)-8-8-9-9--11-(x8)-9-(x8)-7-(x9)---|
E|-9—------12------5-------6-6-7-7--9-------7------5--------|
(hello hello hello hello hello hello hello)
OW!OW!why you talking to me

e|------------------------------------------------------------|
B|------------------------------------------------------------|
G|------------------7-x-7-7-7-7-------------------------------|
D|------7-x-7-7-7-7-7-x-7-7-7-7-3-x-3-3-3-3-8-8-8-8-5-5-5-5---|
A|------7-x-7-7-7-7-5-x-5-5-5-5-3-x-3-3-3-3-8-8-8-8-5-5-5-5---|
E|-12\5-5-x-5-5-5-5-------------1-x-1-1-1-1-6-6-6-6-3-3-3-3---|
whats the matter my babys dead his heart went blind on me
my dress caught fire from one match that you gave me
and all that’s left is your bail and the wreck i got yeah
i wont change and your missing me coz your phone calls gone and

e|-----------------------------------|
B|-----------------------------------|
G|-----------------------------------|
D|-7-7-7-7-7-7-7-7-7-7-7-7-7-7-7-7---|
A|-7-7-7-7-7-7-7-7-7-7-7-7-7-7-7-7---|
E|-5-5-5-5-5-5-5-5-5-5-5-5-5-5-5-5---|
PM - - - - - - - - - - - - - - - -
no ones coming no ones coming no ones coming no ones coming FOR YOU!

e|---------------------------------------------------------------------------|
B|---------------------------------------------------------------------------|
G|---------------------------------------------------------------------------|
D|-11-11-11-11-11-11-11-11-9-9-9-9-9-9-9-9-7-7-7-7-7-7-7-7-7-7-7-7-8-8-9-9---|
A|-11-11-11-11-11-11-11-11-9-9-9-9-9-9-9-9-7-7-7-7-7-7-7-7-7-7-7-7-8-8-9-9---|
E|-9--9--9--9--9--9--9--9--7-7-7-7-7-7-7-7-5-5-5-5-5-5-5-5-5-5-5-5-6-6-7-7---|
(hello hello hello hello hello hello hello)
my dress on fire
?yeah us burning down? (not to sure about this lyric)

played with slight difference at end
e|----------------------------------------------------------|
B|----------------------------------------------------------|
G|----------------------------------------------------------|
D|-11------14------7-------8-8-9-9--11------9------7--------|
A|-11-(x8)-14-(x8)-7-(x12)-8-8-9-9--11-(x8)-9-(x8)-7-(x9)---|
E|-9—------12------5-------6-6-7-7--9-------7------5--------|
(hello hello hello hello hello hello hello)
i got no desires no want no want

e|---------------------------------------------------------------------------|
B|---------------------------------------------------------------------------|
G|---------------------------------------------------------------------------|
D|-11-11-11-11-11-11-11-11-9-9-9-9-9-9-9-9-7-7-7-7-7-7-7-7-7-7-7-7-8-8-9-9---|
A|-11-11-11-11-11-11-11-11-9-9-9-9-9-9-9-9-7-7-7-7-7-7-7-7-7-7-7-7-8-8-9-9---|
E|-9--9--9--9--9--9--9--9--7-7-7-7-7-7-7-7-5-5-5-5-5-5-5-5-5-5-5-5-6-6-7-7---|
(hello hello hello hello hello hello hello)
but i mean this the same day same year ring around the posy yeah addicted to all that
pockets full of real estate

e|-------------------------------------------------------------------------------|
B|-------------------------------------------------------------------------------|
G|-------------------------------------------------------------------------------|
D|-11-11-11-11-11-11-11-11-9-9-9-9-9-9-9-9-7-7-7-7-7-7-7-7-7-7-7-7-7-8-9-11-12---|
A|-11-11-11-11-11-11-11-11-9-9-9-9-9-9-9-9-7-7-7-7-7-7-7-7-7-7-7-7-7-8-9-11-12---|
E|-9--9--9--9--9--9--9--9--7-7-7-7-7-7-7-7-5-5-5-5-5-5-5-5-5-5-5-5-5-6-7-9--10---|
tax returns and don’t you hate when it all burns down die die die and dust die and dust
baby fire baby fire baby fire baby FIRE!

| /  slide up
| \  slide down
| x  Mute note
===============================================================================
PLEASE RATE!
            
Submit corrections

comments powered by Disqus
↑ Back to top | Courtney Love Tabs for Hello. Lyrics for acoustic guitar and electric guitar. 1 Tablatures and chords are parodies/interpretations of the original songs. You may use it for private study, scholarship, research or language learning purposes only