>
 >
Im Not Sleeping Here Anymore

Im Not Sleeping Here Anymore Guitar Tabs

Counting Crows - Im Not Sleeping Here Anymore chords, tabs, tablatures, lyrics

Guitar lessons | Add/correct | Request | Top 50 tabs Artists:  A B C D E F G H I J K L M N O P Q R S T U V W X Y Z 0-9

Im Not Sleeping Here Anymore Guitar Tabs – Counting Crows

CD, Sheet music, Poster

Do you like Im Not Sleeping Here Anymore? Share with your friends now
Tabs
"Im not sleeping anymore" By The Counting Crows
pm:palm muted
h:Hammer on
/:Slide

Intro(Rhythmn Guitar)
repeat x4     then play: repeat x4
e------------ ----------------- --------------------------
B------------ ----------------- --------------------------
G------------ ---------9-9-9-9- --------------------------
D---2-2-2-2-- --7-7----9-9-9-9- ---2-2-2-2--7-7-2---------
A---2-2-2-2-- --7-7--pm7-7-7-7- ---2-2-2-2--7-7-2---------
E-pm0-0-0-0-- --5-5------------ --/0-0-0-0--5-5-0---------

Intro(lead guitar)
Its the same thing up until, the rhytymn plays the A chord
at that point the lead goes like this:

e-----------------------------------------
B-----------------------------------------
G-----------------------------------------
D--------7-----7---7-6h7-6h7-6h7-6--------
A--0---7-----7---7------------------------
E----9-----9------------------------------

Verse(rhythmn)
The verse part is pretty non-existent in this song so I Just play what 
the organ plays which is:
(clean tone)repeat throughout the verse
e----5--0---------------
B-7--5--0---------------
G-7--6--1---------------
D-7--7--2---------------
A-5--7--2---------------
E----5--0---------------

the verse part for lead is really pretty simple to figure out he just 
bends some notes on the B and high e strings around the 10th and 12th 
frets and stuff like that.

The chorus is the exact same as the Intro for both parts

Bridge (rhythmn)
he strums each chord 7 times except for the A which is only twice
e--------------------------------
B--------------------------------
G--9--8--7-----------------------
D--9--8--7--7--------------------
A--7--6--5--7--------------------
E-----------5--------------------

Bridge(lead)
repeat this twice
e-------------------------------------------------------
B-------------------------------------------------------
G--9---9---9---9---8---8---8---8---7---7---7---7--------
D--------------------------------------------------7-7--
A----7---7---7---7---7---7---7---7---7---7---7---7------
E-------------------------------------------------------

Guitar solo

e--12-11----12-11----12-11----12-11----11----12-11----12-11-
B--------12-------12-------12-------12----12-------12-------
G-----------------------------------------------------------
D-----------------------------------------------------------
A-----------------------------------------------------------
E-----------------------------------------------------------

-----12-11----12-11----12b---------------------------10----
--12-------12-------12-------9-----9-----9-----9---9----9--
---------------------------9---9-------9-----9---9--------8
---------------------------------9---9-----9---------------
-----------------------------------------------------------
-----------------------------------------------------------

---10-------
-9----9b-9--
------------
------------
------------
------------

Thats it actually they go into another verse then a chorus thats extra 
long and the song ends,its a cool song,fun to play well feel free to 
write me and tell me what u think!





Comments


Popular Counting Crows tabs & chords
A Murder Of One 2 Chords
Walkaways Chords
A Murder Of One Tabs
Mr. Jones 1 Tabs
Round Here 1 Tabs
Accidentally In Love Ukulele
Hanging Tree Ukulele
Los Angeles Ukulele
Were Only Love Ukulele
Why Should You Come When I Call Ukulele


Song lyrics



↑ Back to top | Tablatures and chords are parodies/interpretations of the original songs. You may use it for private study, scholarship, research or language learning purposes only
© 2014 AZChords.com Contact us | Privacy policy | DMCA | Add/correct tabs | Request tabs | Top 50 tabs