» » »

Counting Crows, American Girls Bass tabs (ver.1)

Artists:  A B C D E F G H I J K L M N O P Q R S T U V W X Y Z # 

American Girls Bass tabs (ver.1)

Counting Crows Tabs
Rating:
0/5 (0 votes)
Hard to play? Try these video lessons and learn fast.
                (1)
Intro

G--------------------------------------
D--------------------------------------
A----------1-1-1-1-----1-3-3-3-1-1-1-1-
E--1-1-1-1----------x3-----------------

Verse

G--------------------------------------------
D--------------------------------------------
A----------1-1-1-1-----------1-3-3-3-1-1-1-1-
E--1-1-1-1--------1-1-1-1--------------------

Pre-Chorus

G--------------------------------------
D--------------------------------------
A-3-3-3-3-3-1-1-1-1-1------------------
E--------------------------------------

Verse

Pre Chorus x2

G--------------------------------------------
D---------------------------------------------
A-3-3-3-3-3-1-1-1-1-3-3-3-3-------------------
E--------------------------3-3-3-3-6-6-6-6----

Chorus

G--------------------------------------
D--------------------------------------
A-5-5-5-5-1-1-1-1---------3-3-3-3-4-5--
E-----------------1-1-1-1--------------
            

comments powered by Disqus
↑ Back to top | Counting Crows Bass for American Girls. Lyrics for acoustic guitar and electric guitar. Tablatures and chords are parodies/interpretations of the original songs. You may use it for private study, scholarship, research or language learning purposes only