» » »

Corinne Bailey Rae, Till It Happens To You Chords (ver.1)

Artists:  A B C D E F G H I J K L M N O P Q R S T U V W X Y Z # 

Till It Happens To You Chords (ver.1)

Corinne Bailey Rae Tabs
Rating:
5/5 (1 vote)
Till It Happens To You lessons Tabs too difficult? Try these video lessons and learn fast
                "Till It Happens To You"
Corinne Bailey Rae
Arr. Passion

I worked out the chords from the song and the arrangement from

Cappo 2nd Fret

Gsus2    G6sus2   Gmaj7sus2     Dmaj7      Eb7
30003x   300030    300032        xx0222    x1102x

Intro:  Bm7 to F#7
 |       |       |       |        |       |       |       |        
|--------------------------------|--------------------------2-----|
|----------------------3-------3-|--------------------------2-----|
|----------------2-----2h4-----2-|--------------------------3-----|
|----------4---------------------|----4---------------2-----------|
|----2---------------------------|----------------4---------------|
|--------------------------------|----------2---------------------|


Bm7           F#7
I know what I said
Bm7                 F#7
Was heat of the moment
Em                                        A
     But there’s a little truth in between the words we've spoken
Em                               A
   It’s a little late now to fix the heart thats broken
Em                                             A    Eb7
   Please don't ask me where I'm going
Bm7                     F#7
Cause I don't know
D              Em         Gsus2  G6sus2   Gmaj7 sus2
No I don't know anymore


Dmaj7     
It used to feel like heaven
Em7
Used to feel like may
Dmaj7
I used to hear those violins playing heart strings like a symphony
                  Em7
Now they've gone away
Em                                          
Nobody wants to face the truth
  F                    Eb7
But you wont believe what love can do


Bm7          F#7
Till it happens to you
Till it happens to you


Bm7        F#7
Went to the old flat
Bm7              F#7
Guess I was trying to turn the clock back
                      Em                                      A
How come that nothing feels the same now when I'm with you
   Em
We used to stay up all night in the kitchen
                  A
When our love was new
Em                                        A Eb7
Oooh love I'm a fool to believe in you

Bm7        F#m
Cause I don't know
D       Em                      Gsus2  G6sus2   Gmaj7 sus2
No I don't know anymore

Dmaj7     
It used to feel like heaven
Em7
It used to feel like may
Dmaj7     
I used to hear those violins playing heart strings like a symphony
Em7
Now they've gone away
Em
Nobody wants to know the truth
  F                        F#m
Until their hearts broken
              F               Em
Don't you dare tell them what you think to do
F            F#m
Till they get over
            F             Em
You can only learn these things
                         
F         F#m
When you get older

Em (hold)
             I just wish that someone, would have told me

mm mm mmmhh

|--------------------------------|--------------------------2-----|
|----------------------3-------3-|--------------------------2-----|
|----------------2-----2h4-----2-|--------------------------3-----|
|----------4---------------------|----4---------------2-----------|
|---0--2-------------------------|----------------4---------------|
|-2------------------------------|----------2---------------------|

Bm7      F#7
Till it happens to you
Till it happens to you
Till it happens to you
            

comments powered by Disqus
↑ Back to top | Corinne Bailey Rae Chords for Till It Happens To You. Lyrics for acoustic guitar and electric guitar. Tablatures and chords are parodies/interpretations of the original songs. You may use it for private study, scholarship, research or language learning purposes only