>
 >
The Blackest Lily

The Blackest Lily Guitar Tabs

Corinne Bailey Rae - The Blackest Lily chords, tabs, tablatures, lyrics

Guitar lessons | Add/correct | Request | Top 50 tabs Artists:  A B C D E F G H I J K L M N O P Q R S T U V W X Y Z 0-9

The Blackest Lily Guitar Tabs – Corinne Bailey Rae

CD, Sheet music, Poster

Do you like The Blackest Lily? Share with your friends now
Tabs
    ______________________
   / Corinne Bailey Rae  /
  / The Blackest Lily   /
 / The Sea             /
/_____________________/

In this wonderfully sexy song there is nothing more than this 12 bars round.
In the chorus, bars 2 and 4 are shortened to half the length, 2/4, which
adds this cool twist to the groove.
The guitar is not that prominent in this song, so I've just notated chords
when it doesn't play anything in particular.

----------------------------------------------------------------------------



 Verse:
| Am | Am | Ammaj7 | Ammaj7 |

| Am7 | Am7 | D9 | D9 |

| F7 | F7 | E7 | E7 |



 Verse:
The band comes in on D9, and from there the guitar strums these chords:
  D9   x 5 4 5 5 x
  F7   x x 3 2 1 1
  E7   x x 2 1 0 0



 Chorus:
     (2/4)         (2/4)
| Am | Am | Ammaj7 | Ammaj7 |

| Am7 | Am7 | D9 | D9 |

| F7 | F7 | E7 | E7 |


 This is the electric guitar part for the chorus:
  Am              (2/4)       Ammaj7          (2/4)
|-----------------|---------|-----------------|---------|
|-----------------|---------|-----------------|---------|
|-----------------|---------|-----------------|---------|
|-7---7-----7---7-|---7-----|-6---6-----6---6-|---6-----|
|-----------------|---------|-----------------|---------|
|-5---5-----5---5-|---5-----|-5---5-----5---5-|---5-----|

  Am7                                 D9
|-----------------|-----------------|-----------------|-----------------|
|-----------------|5h7--7-5-7-5-8-5~|~~---------------|-----------------|
|-------------5-7-|-----------------|--------7b8r7p5--|-----------------|
|-5---5-----7-----|-----------------|---------------7~|~~\--------------|
|-----------------|-----------------|-----------------|-----------------|
|-5---5-----------|-----------------|-----------------|-----------------|

  F7                                  E7
|---8-8-8-8-8--/8-|-8-8-8-8\--------|-------------------|-----------------|
|--1010101010-/10-|10101010\--------|-------------------|-----------------|
|-----------------|-----------------|-------------------|-----------------|
|-----------------|-----------------|-------------------|-----------------|
|-----------------|-----------------|-------------------|-----------------|
|-----------------|-----------------|-0-0-3-5-5b6r5-3-0-|-----------------|




 Drum break: 2 bars


 Verse


 Chorus



 Guitar solo (verse)
  Am                                      Ammaj7
|-----------------|---------------------|-----------------|--------------------|
|-----------------|---------------------|-----------------|--------------------|
|--7b9-r7p5-------|-7b9-7b9-7b9-7b9-7b9-|-7b9-r7p5--------|7b9-7b9-7b9-7b9-7b9-|
|-----------7~~~--|---------------------|----------7p5-7~~|--------------------|
|-----------------|---------------------|-----------------|--------------------|
|-----------------|---------------------|-----------------|--------------------|

  Am7                                   D9
|-----------------|-------------------|------------------|-----------------|
|-7b8-------------|-------------------|------3\1---------|--------0--------|
|-------7b9--5b7--|--7/10-10\7-7-5----|--------------2---|--------0--------|
|-----------------|----------------7p5|-3/4------------2-|-2p0------2~-----|
|-----------------|-------------------|------------------|-----------------|
|-----------------|-------------------|------------------|-----------------|

...then the keyboard's talkbox-part in the last 4 bars:
| F7 | F7 | E7 | E7 |



 Verse


 2x Chorus



 Outro:
  Am              (2/4)       Ammaj7          (2/4)
|-----------------|---------|-----------------|---------|
|-----------------|---------|-----------------|---------|
|-----------------|---------|-----------------|---------|
|-7---7-----7---7-|---7---7-|-6---6-----6---6-|---6---6-|
|-----------------|---------|-----------------|---------|
|-5---5-----5---5-|---5---5-|-5---5-----5---5-|---5---5-|

  Am7             (2/4)       Ammaj7          (2/4)
|-----------------|---------|-----------------|---------|
|-----------------|---------|-----------------|---------|
|-----------------|---------|-----------------|---------|
|-5---5-----5---5-|---5---5-|-6---6-----6---6-|---6---6-|
|-----------------|---------|-----------------|---------|
|-5---5-----5---5-|---5---5-|-5---5-----5---5-|---5---5-|

  Am
|-----------------|
|-----------------|
|-----------------|
|-7---7-----------|
|-----------------|
|-5---5-----------|




 LYRICS
**********
I didn't know the day was
I didn't know what the time it was
I didn't know what my heart would do
I was afraid of nothing when you called me on the telephone

I was a creature of appetites
And we played a game that you didn't like
There wasn't nothing that I could do
I can be so bad
I can be so bad
They just took it away and they broke it in two

Colour my heart
Colour my heart
Make it restart
Make it restart
Colour my heart
I want it more than I ever knew

The blackest lily
The blackest pony
Won't protect my heart from you

You were unnercingly delicate
And I had a weekness for etiquette
You laid a trail that led straight to your door
And I could resist, but it was hard to ignore

Colour my heart


+--------------------------------------------------------------------------+
Jon Sebastian Frederiksen - 19th /July /10





Comments


Popular Corinne Bailey Rae tabs & chords
Like A Star 4 Chords
Paris Nights/ New York Mornings Chords
The Sea Chords
Trouble Sleeping Chords
Are You Here 1 Tabs
Paper Dolls Tabs
Put Your Records On 1 Tabs
Put Your Records On Tabs
Another Rainy Day Ukulele
Id Do It All Again Ukulele


Song lyrics



↑ Back to top | Tablatures and chords are parodies/interpretations of the original songs. You may use it for private study, scholarship, research or language learning purposes only
© 2014 AZChords.com Contact us | Privacy policy | DMCA | Add/correct tabs | Request tabs | Top 50 tabs