» » »

Put Your Records On Bass tabs (ver.1)

Artists:  A B C D E F G H I J K L M N O P Q R S T U V W X Y Z # 

Put Your Records On Bass tabs (ver.1)

Corinne Bailey Rae
Rating:
0/5 (0 votes)

Hard to play? Try these video lessons and learn fast.
                ------------------------------------------------------------
     "Put Your Records on" - Corinne Bailey Rae
------------------------------------------------------------

Tuning: Standard

  INTRO        VERSE
G|------------|---------------------------------------------|
D|-          -|---------------------------------------------|
A|- [silent] -|-12\0-00-000-0---------------------00-000----|
E|------------|---------------22-222-2-00-000-0h2-------0h2-|

     pre-CHORUS
G|----------------------------------------------------------|
D|--------------------------------0-0-0-00-12-0-00-12~------|
A|---------44-444-4--------22-222----------------------12\0-|
E|-22-222-2--------22-222-2---------------------------------|
 
     CHORUS
G|----------------------------------------------|
D|----------------------------------------------|
A|-12\0-00-000-0---------------------00-000-----|
E|---------------22-222-2-00-000-0h2-------0h2--|
 
     post-CHORUS
G|--------------------|
D|--0-000-00~---------|
A|------------00-000--|
E|--------------------|

     BRIDGE
G|-----------------------------------|
D|-----------------------------------|
A|-22-222-2--------22-222-2----------|
E|---------22-222-2--------22-222-2--|
 
G|-----------------------------------|
D|-----------------------------------|
A|-22-222-2--------2-5-55-55~--------|
E|---------22-222-2------------12\0--|

     OUTRO 
G|--------------------|
D|--------------------|
A|-0-000-0~-12~-------|
E|--------------12\0~-|
            
Hard to play? Try these video lessons and learn fast. | Correct




comments powered by Disqus
↑ Back to top | Tablatures and chords are parodies/interpretations of the original songs. You may use it for private study, scholarship, research or language learning purposes only