» » »

Corinne Bailey Rae, Are You Here Tabs (ver.1)

Artists:  A B C D E F G H I J K L M N O P Q R S T U V W X Y Z # 

Are You Here Tabs (ver.1)

Corinne Bailey Rae Tabs
 Rating:
4/5 (6 votes)
Are You Here lessons Tabs too difficult? Try these video lessons and learn fast
                    ______________________
   / Corinne Bailey Rae  /
  / Are You Here        /
 / The Sea             /
/_____________________/

This is Corinne's guitar part, which is the foundation of the song.
Enjoy this honeysmooth piece of music! :)


 Intro:
  A/E           Esus4                 A/E           Esus4
|-----------------|-----------------|-----------------|-----------------|
|-----------------|-----------------|-----------------|-----------------|
|-2---2-2-2-2--(2)|-----------------|-2---2-2-2-2--(2)|-----------------|
|-2---2-2-2-2--(2)|-----------------|-2---2-2-2-2--(2)|-----------------|
|-4---4-2-4-2--(2)|-----------------|-4---4-2-4-2--(2)|-----------------|
|---------------0-|-----------------|---------------0-|-----------------|



 Verse:
  A/E           Esus4                 A/E           Esus4
|-----------------|-----------------|-----------------|-----------------|
|-----------------|-----------------|-----------------|-----------------|
|-2---2-2-2-2--(2)|-----------------|-2---2-2-2-2--(2)|-----------------|
|-2---2-2-2-2--(2)|-----------------|-2---2-2-2-2--(2)|-----------------|
|-4---4-2-4-2--(2)|-----------------|-4---4-2-4-2--(2)|-----------------|
|---------------0-|-----------------|---------------0-|-----------------|

  A/E           C#m7                  B7sus4        E11
|-----------------|-----------------|-------2------(2)|-----------------|
|---------------5-|-----------------|-------5------(5)|-----------------|
|-2---2-2-2-2---4-|-----------------|-----2--------(2)|-----------------|
|-2---2-2-2-2---6-|-----------------|---4----------(4)|-----------------|
|-4---4-2-4-2---4-|-----------------|-2------------(2)|-----------------|
|-----------------|-----------------|---------------0-|-----------------|



 Short verse:
(as an exception, this verse is shortened off)
  A/E           Esus4                 A/E          Esus4
|-----------------|-----------------|-----------------|-----------------|
|-----------------|-----------------|-----------------|-----------------|
|-2---2-2-2-2--(2)|---------------2-|-2---2-2-2-2--(2)|-----------------|
|-2---2-2-2-2--(2)|---------------2-|-2---2-2-2-2--(2)|-----------------|
|-4---4-2-4-2--(2)|---------------2-|-4---4-2-4-2--(2)|-----------------|
|---------------0-|-----------------|---------------0-|-----------------|

  A/E           C#m7
|---------------4-|
|---------------5-|
|-2---2-2-2-2---4-| then continue straight
|-2---2-2-2-2---6-| into the Pre-Chorus...
|-4---4-2-4-2---4-|
|-----------------|



 Pre-Chorus:
  C#m7                                G#7
|-----4-------4---|-----4-------4---|-----4-------4---|-----4-------4---|
|-----5-------5---|-----5-------5---|-----4-------4---|-----4-------4---|
|-----4-------4---|-----4-------4---|-----5-------5---|-----5-------5---|
|-----6-------6---|-----6-------6---|-----4-------4---|-----4-------4---|
|-4-4-4---4-4-4---|-4-4-4---4-4-4---|-----6-------6---|-----6-------6---|
|-----------------|-----------------|-4-4-4---4-4-4---|-4-4-4---4-4-4---|

  Amaj7                               F#7
|-0-----0---0---0-|-----0-0-0---0---|-0---0-0-0-0-0-0-|-0-0-0-0-0-0-0---|
|-2-----2---2---2-|-----2-2-2---2---|-2---2-2-2-2-2-2-|-2-2-2-2-2-2-2---|
|-1-----1---1---1-|-----1-1-1---1---|-3---3-3-3-3-3-3-|-3-3-3-3-3-3-3---|
|-2-----2---2---2-|-----2-2-2---2---|-2---2-2-2-2-2-2-|-2-2-2-2-2-2-2---|
|-0-----0---0---0-|---0-0-0-0-0-0---|-x---x-x-x-x-x-x-|-x-x-x-x-x-x-x---|
|-----------------|-----------------|-2---2-2-2-2-2-2-|-2-2-2-2-2-2-2---|



 Intro

 Verse (in the pauses at the Esus4 chord, strum the low E-string as a drone)

 Pre-Chorus



 Chorus:
(when the chords are notated like this, there's no particular strumming pattern)
   E          Em7        Asus4
|--0--|-----|--7--|-----|--0--|-----|
|--9--|-----|--8--|-----|--5--|-----|
|--9--|-----|--7--|-----|--7--|-----|
|--9--|-----|--9--|-----|--7--|-----|
|--7--|-----|--7--|-----|--0--|-----|
|--0--|-----|--0--|-----|-----|-----|

   E          Em7        Asus4       Asus4
|--0--|-----|--7--|-----|--0--|-----|--0--|-----|
|--9--|-----|--8--|-----|--5--|-----|--5--|-----|
|--9--|-----|--7--|-----|--7--|-----|--7--|-----|
|--9--|-----|--9--|-----|--7--|-----|--7--|-----|
|--7--|-----|--7--|-----|--0--|-----|--0--|-----|
|--0--|-----|--0--|-----|-----|-----|-----|-----|



 2x Intro

 Pre-Chorus (play 2 bars more of F#7 before moving on)

 Chorus

 Verse (outro)




 LYRICS
**********
He's a real live wire
He's the best of his kind
Wait till you see those eyes
He dresses like this different scene
He'll kiss you, make you feel sixteen
What's it even mean?

Are you here
Are you here
Are you here, cause my heart recalls that
It all seems the same
It all feels the same

Pick me up

It's hard to recall the taste of summer
When everywhere around, the chill of winter
It's so far away

Are you here

And he comes to lay me down in a garden of tuberoses
When he comes around there's nothing more to imagine
Just tuberoses
Tuberoses

Are you here
Are you here
Are you here, cause my heart recalls that
All seems like
All looks like
It all feels like
It tasted like
Tasted
Tasted like

And he comes to lay me down in a garden of tuberoses
When he comes around there's nothing more to imagine
Just tuberoses
Tuberoses

Wait till you see those eyes


+--------------------------------------------------------------------------+
Jon Sebastian Frederiksen - 19th /July /10
            
Submit corrections

comments powered by Disqus
↑ Back to top | Corinne Bailey Rae Tabs for Are You Here. Lyrics for acoustic guitar and electric guitar. Tablatures and chords are parodies/interpretations of the original songs. You may use it for private study, scholarship, research or language learning purposes only