>
 >
Another Rainy Day

Another Rainy Day Chords

Corinne Bailey Rae - Another Rainy Day chords, tabs, tablatures, lyrics

Guitar lessons | Add/correct | Request | Top 50 tabs Artists:  A B C D E F G H I J K L M N O P Q R S T U V W X Y Z 0-9

Another Rainy Day Chords – Corinne Bailey Rae

CD, Sheet music, Poster

Do you like Another Rainy Day? Share with your friends now
ChordsChords v2Ukulele
   Bm7   E9   Am7  D9
e---x-----x-----x---x-|
B---7-----7-----7---5-|
G---7-----7-----7---5-|
D---7-----6-----7---4-|
A---x-----7-----x---5-|
E---7-----x-----7---x-|

Intro: Bm7/E9/Am7/D9  x2


Bm7             E9
    I got taken in
              Am7
We feasted on olives from the fridge
   D9
We stood the whole lonely day
Bm7                  E9
    We made love all afternoon
         Am7            D9  D9/C
'Til the stars went blue
Bm7
You wrote a ballad
E9                          Am7
We dined on oysters and champagne
                D9
That's it seemed like
      Bm7                 E9
We connect in so many ways
         Am7       D9
So easy, I must say

D9/C     Bm7      E9
Why am I so shy around you?
Am7             D9
Why am I so shy?
D9/C     Bm7            E9
Why do I take care to astound you?
Am7               D9  D9/C
Why do I even try?

Bm7               E9
    Another rainy day
              Am7
We sat inside by the radiator
                       D9
Watching old black and white films

Where everybody sang
Bm7                  E9
    You played in my solitude
           Am7           D9  D9/C
Didn't get dressed 'til 2
Bm7
The rain says all
E9                         Am7
I wrote this song on my guitar
                   D9
But it didn't turn out right
D9/C          Bm7                 E9
So we just connected in other ways
         Am7       D9
So easy, I must say

D9/C     Bm7      E9
Why am I so shy around you?
Am7             D9
Why am I so shy?
D9/C     Bm7            E9
Why do I take care to astound you?
Am7               D9
Why do I even try?
D9/C     Bm7      E9
Why am I so shy around...?
       Am7      D9
Why am I so shy?
D9/C     Bm7       E9
Why do I take care...?
         Am7      D9  D9/C
Why do I even try?

Outro: Bm7/E9/Am7/D9 x 2

last gtr chord: Bm7. (If you want to play the other instrument part)

Melody that comes up alot
e---------------------------------------------------|
B----------8--10-----12-10-8------------------------|
G--11--11---------9-----------11-7-7-9-11-----------|
D---------------------------------------------------|
A---------------------------------------------------|
E---------------------------------------------------|

End accordion thing:
e---------------------------------------------------|
B---------------------------------------------------|
G----4-4---4-4---4-4---5-5---2-2---2-2---2-2---2-2--|
D----4-4---4-4---6-6---6-6---2-2---2-2---4-4---4-4--|
A--5-----5-----5-----5-----3-----3-----3-----3------|
E---------------------------------------------------|

OR UP AN OCTAVE

e----7-7---7-7---7-7---7-7---5-5---5-5---5-5---5-5--|
B----7-7---7-7---9-9---9-9---5-5---5-5---7-7---7-7--|
G--7-----7-----7-----7-----5-----5-----5-----5------|
D---------------------------------------------------|
A---------------------------------------------------|
E---------------------------------------------------|





Comments


Popular Corinne Bailey Rae tabs & chords
Another Rainy Day 1 Chords
Choux Pastry Heart Chords
Paris Nights/ New York Mornings Chords
Put Your Records On 1 Chords
Put Your Records On 2 Chords
The Sea Chords
Till It Happens To You Chords
Put Your Records On Tabs
Choux Pastry Heart Ukulele
Till It Happens To You Ukulele


Song lyrics



↑ Back to top | Tablatures and chords are parodies/interpretations of the original songs. You may use it for private study, scholarship, research or language learning purposes only
© 2014 AZChords.com Contact us | Privacy policy | DMCA | Add/correct tabs | Request tabs | Top 50 tabs