» » »

Cooper Temple Clause, Who Needs Enemys Bass tabs (ver.1)

Artists:  A B C D E F G H I J K L M N O P Q R S T U V W X Y Z # 

Who Needs Enemys Bass tabs (ver.1)

Cooper Temple Clause Tabs
 Rating:
4/5 (4 votes)
Who Needs Enemys lessons Tabs too difficult? Try these video lessons and learn fast
1
                Rating of song: **** HOT
Rating of my own tab: 6/10
Notes: I watched the electronix board guy play the bass for this song a few days ago and this is what i picked up while watching, some of it is a little rough and wrong but its better than any tab i have found on the internet. Have fun!


Definitions: / Slide UP
             \ Slid DOWN

Section 1:

G---2/15--------------------------
D---------7\3-----------0-1-2-----
A---------------------------------
E---------------------------------

Section 2:

G---2/15-15-----8---2/13 7---------
D----------------------------------
A----------------------------------
E----------------------------------

Killer Key Change:

G-------------------
D-------------------
A--0----3-----------
E—------------------

Chorus:

G---------------------------------------------------3-1--------------
D-------------------------------------------------------3-2-1--------
A-2-2-2-2-2-2-5--1-1-1-1-2--3-2-2-2-2-2-5--1-1-1-1------------3---9--
E--------------------------------------------------------------------

Wierd Part:

G----------------------------------------------
D----------------------------------------------
A--1-33-6--7-8-9-12/13----1-33-4--13\12\11--7--
E----------------------------------------------

Ending Jam:

G--3-3-3-3-3-3-3-3-3-3---3-1--------
D----------------------------3-1----
A--------------------------------1--
E-----------------------------------
            
Submit corrections

comments powered by Disqus
↑ Back to top | Cooper Temple Clause Bass for Who Needs Enemys. Lyrics for acoustic guitar and electric guitar. 1 Tablatures and chords are parodies/interpretations of the original songs. You may use it for private study, scholarship, research or language learning purposes only