» » »

Waiting Game Tabs (ver.1)

Artists:  A B C D E F G H I J K L M N O P Q R S T U V W X Y Z # 

Waiting Game Tabs (ver.1)

Cooper Temple Clause
Rating:
5/5 (1 vote)

Hard to play? Try these video lessons and learn fast.
                WAITING GAME – THE COOPER TEMPLE CLAUSE

I hope this is close to correct. I think it’s in the right key, the outro may however 
on the C# rather than the D# (move it all back two frets), and I didn’t listen to the 
change in the interlude, so Dan’s chords are missing there.

Tuning:	Standard (EADGBe)

Tom Intro
e|----7-7----7-7-------------------------7----6---4--------------------------|
B|---------------(reapeat as needed)-------------------to end----------------|
G|4-4----4-4-------------------------4-4---4---4-----------------------------|
D|---------------------------------------------------------------------------|
A|---------------------------------------------------------------------------|
E|---------------------------------------------------------------------------|

Dan Intro Chords
  B                      C#
e|---------------------------------------------------------------------------|
B|---------------------------------------------------------------------------|
G|-8--8--8--8--8--8--8--8-10-10-10-10-10-10-10-10----------------------------|
D|-9--9--9--9--9--9--9--9-11-11-11-11-11-11-11-11----------------------------|
A|-9--9--9--9--9--9--9--9-11-11-11-11-11-11-11-11----------------------------|
E|-7--7--7--7--7--7--7--7--9--9--9--9--9--9--9--9----------------------------|

  E                      E
e|---------------------------------------------------------------------------|
B|---------------------------------------------------------------------------|
G|-1--1--1--1--1--1--1--1--1--1--1--1--1--1--1--1----------------------------|
D|-2--2--2--2--2--2--2--2--2--2--2--2--2--2--2--2----------------------------|
A|-2--2--2--2--2--2--2--2--2--2--2--2--2--2--2--2----------------------------|
E|-0--0--0--0--0--0--0--0--0--0--0--0--0--0--0--0----------------------------|

  D#                     F#
e|---------------------------------------------------------------------------|
B|---------------------------------------------------------------------------|
G|-8--8--8--8--8--8--8--8-11-11-11-11-11-11-11-11----------------------------|
D|-8--8--8--8--8--8--8--8-11-11-11-11-11-11-11-11----------------------------|
A|-6--6--6--6--6--6--6--6--9--9--9--9--9--9--9--9----------------------------|
E|---------------------------------------------------------------------------|

  E                      E
e|---------------------------------------------------------------------------|
B|---------------------------------------------------------------------------|
G|-1--1--1--1--1--1--1--1--1--1--1--1--1--1--1--1----------------------------|
D|-2--2--2--2--2--2--2--2--2--2--2--2--2--2--2--2----------------------------|
A|-2--2--2--2--2--2--2--2--2--2--2--2--2--2--2--2----------------------------|
E|-0--0--0--0--0--0--0--0--0--0--0--0--0--0--0--0----------------------------|


Tom Verse (same as intro until 0:33, then)
e|(7)-------(7)-------(7)-------(7)--------      ----------------------------|
B|-4/5\4-----4/5\4-----4/5\4-----4/5\4-----  x2  ----------------------------|
G|-----------------------------------------      ----------------------------|
D|---------------------------------------------------------------------------|
A|---------------------------------------------------------------------------|
E|---------------------------------------------------------------------------|

  (0:40)
e|---7-----7-----7-----7-----7-----7-----7-----7-----------------------------|
B|---7-----7-----7-----7-----7-----7-----7-----7---on the off-beats----------|
G|-------------------------------------------------listen to the song--------|
D|---------------------------------------------------------------------------|
A|---------------------------------------------------------------------------|
E|---------------------------------------------------------------------------|

  (0:47)
e|7---------7---------7---------7----------      ----------------------------|
B|-4/5\4-----4/5\4-----4/5\4-----4/5\4-----  x2  ----------------------------|
G|-----------------------------------------      ----------------------------|
D|---------------------------------------------------------------------------|
A|---------------------------------------------------------------------------|
E|---------------------------------------------------------------------------|

  (0:57)
e|---7-----7-----6-----6-----7-----7-----7-----7-----------------------------|
B|---7-----7-----7-----7-----7-----7-----7-----7---on the off-beats----------|
G|-------------------------------------------------listen to the song--------|
D|---------------------------------------------------------------------------|
A|---------------------------------------------------------------------------|
E|---------------------------------------------------------------------------|

Dan Verse (same chords as intro)
  B                      C#
e|---------------------------------------------------------------------------|
B|---------------------------------------------------------------------------|
G|-8--8--8--8--8--8--8--8-10-10-10-10-10-10-10-10----------------------------|
D|-9--9--9--9--9--9--9--9-11-11-11-11-11-11-11-11----------------------------|
A|-9--9--9--9--9--9--9--9-11-11-11-11-11-11-11-11----------------------------|
E|-7--7--7--7--7--7--7--7--9--9--9--9--9--9--9--9----------------------------|

  E                      E
e|---------------------------------------------------------------------------|
B|---------------------------------------------------------------------------|
G|-1--1--1--1--1--1--1--1--1--1--1--1--1--1--1--1----------------------------|
D|-2--2--2--2--2--2--2--2--2--2--2--2--2--2--2--2----------------------------|
A|-2--2--2--2--2--2--2--2--2--2--2--2--2--2--2--2----------------------------|
E|-0--0--0--0--0--0--0--0--0--0--0--0--0--0--0--0----------------------------|

  D#                     F#
e|---------------------------------------------------------------------------|
B|---------------------------------------------------------------------------|
G|-8--8--8--8--8--8--8--8-11-11-11-11-11-11-11-11----------------------------|
D|-8--8--8--8--8--8--8--8-11-11-11-11-11-11-11-11----------------------------|
A|-6--6--6--6--6--6--6--6--9--9--9--9--9--9--9--9----------------------------|
E|---------------------------------------------------------------------------|

  E                      E
e|---------------------------------------------------------------------------|
B|---------------------------------------------------------------------------|
G|-1--1--1--1--1--1--1--1--1--1--1--1--1--1--1--1----------------------------|
D|-2--2--2--2--2--2--2--2--2--2--2--2--2--2--2--2----------------------------|
A|-2--2--2--2--2--2--2--2--2--2--2--2--2--2--2--2----------------------------|
E|-0--0--0--0--0--0--0--0--0--0--0--0--0--0--0--0----------------------------|


Chorus (Three guitars, Tom plays high chords, Dan plays low)
Tom
e|---------------------------------------------------------------------------|
B|---------------------------------------------------------------------------|
G|-8------11------13------9-------8------11------9---------------------------|
D|-9-x16--11-x16--13-x16--9-x 16--9-x16--11-x16--9-x16—(end by playing part 1|
A|-9-------9------11------7-------9-------9------7------of the verse chords--|
E|-7------------------------------7--------------------------once)-----------|

Dan
e|---------------------------------------------------------------------------|
B|---------------------------------------------------------------------------|
G|-4------3------4------1------4------3------1-------------------------------|
D|-4-x16--4-x16--6-x16--2-x16--4-x16--4-x16--2-x16-----(end by playing part 1|
A|-2------4------6------2------2------4------2----------of the verse chords--|
E|--------2------4------0-------------2------0----------------once)----------|

Third Guitar x 4 (let’s say it’s Ben, although it would be Tom on the record)
e|-7---7---7---7---6---6---6---6---------------------------------------------|
B|---7---7---7---7---7---7---7---7-------------------------------------------|
G|---------------------------------------------------------------------------|
D|---------------------------------------------------------------------------|
A|---------------------------------------------------------------------------|
E|---------------------------------------------------------------------------|


Verse 2 (Dan plays the same as verse 1)
Tom doesn’t play first half, but at the end of each bar plays
e|---------------------------------------------------------------------------|
B|---------------------------------------------------------------------------|
G|--------------------------------------------------------4444444444444444---|
D|---------------------------------------------------------------------------|
A|---------------------------------------------------------------------------|
E|---------------------------------------------------------------------------|

Interlude (Dan quiet)
Tom (with delay)
e|-7--11-----11--9-----6--7-----------------7--11-----11--9-----6--7---------|
B|---------------------------------------------------------------------------|
G|---------------------------------------------------------------------------|
D|---------------------------------------------------------------------------|
A|---------------------------------------------------------------------------|
E|---------------------------------------------------------------------------|

Chorus 2 (Three guitars, Tom plays high chords, Dan plays low)
Tom
e|---------------------------------------------------------------------------|
B|---------------------------------------------------------------------------|
G|-8------11------13------9-------8------11------9---------------------------|
D|-9-x16--11-x16--13-x16--9-x 16--9-x16--11-x16--9-x32—----------------------|
A|-9-------9------11------7-------9-------9------7---------------------------|
E|-7------------------------------7------------------------------------------|

Dan
e|---------------------------------------------------------------------------|
B|---------------------------------------------------------------------------|
G|-4------3------4------1------4------3------1-------------------------------|
D|-4-x16--4-x16--6-x16--2-x16--4-x16--4-x16--2-x32---------------------------|
A|-2------4------6------2------2------4------2-------------------------------|
E|--------2------4------0-------------2------0-------------------------------|

Third Guitar x 4
e|-7---7---7---7---6---6---6---6---------------------------------------------|
B|---7---7---7---7---7---7---7---7-------------------------------------------|
G|---------------------------------------------------------------------------|
D|---------------------------------------------------------------------------|
A|---------------------------------------------------------------------------|
E|---------------------------------------------------------------------------|

Dan Outro Solo (listen for timing, Tom plays chorus chords)
e|---------------------------------------------------------------------------|
B|---------------------------------------------------------------------------|
G|-8--8--8--10-11-13---11-11--10-10--10-10-10--11---6---8-/---18-18-18~------|
D|---------------------------------------------------------------------------|
A|-6--6--6--8--9--11----9--9---8--8---8--8--8---9---4---6-/---16-16-16~------|
E|---------------------------------------------------------------------------|


e|---------------------------------------------------------------------------|
B|---------------------------------------------------------------------------|
G|-8--8--8--10-11-13---11-11--10-10--16-16-16--15---13---9-------------------|
D|---------------------------------------------------------------------------|
A|-6--6--6--8--9--11----9--9---8--8--14-14-14--13---11---7-------------------|
E|---------------------------------------------------------------------------|

Chorus 3 play once(Dan plays harmony chords along with the melody as in outro)
Tom
e|---------------------------------------------------------------------------|
B|---------------------------------------------------------------------------|
G|-8------11------13------9-------8------11------9---------------------------|
D|-9-x16--11-x16--13-x16--9-x 16--9-x16--11-x16--9-x32—----------------------|
A|-9-------9------11------7-------9-------9------7---------------------------|
E|-7------------------------------7------------------------------------------|

Dan
e|---------------------------------------------------------------------------|
B|---------------------------------------------------------------------------|
G|-8--8--8--10-11-13---11-11--10-10--10-10-10--11---6---8--------------------|
D|---------------------------------------------------------------------------|
A|-6--6--6--8--9--11----9--9---8--8---8--8--8---9---4---6--------------------|
E|---------------------------------------------------------------------------|

e|---------------------------------------------------------------------------|
B|---------------------------------------------------------------------------|
G|-8--8--8--10-11-13---11-11--10-10--16-16-16--15---13---9-------------------|
D|---------------------------------------------------------------------------|
A|-6--6--6--8--9--11----9--9---8--8--14-14-14--13---11---7-------------------|
E|---------------------------------------------------------------------------|

Third Guitar x 4
e|-7---7---7---7---6---6---6---6---------------------------------------------|
B|---7---7---7---7---7---7---7---7-------------------------------------------|
G|---------------------------------------------------------------------------|
D|---------------------------------------------------------------------------|
A|---------------------------------------------------------------------------|
E|---------------------------------------------------------------------------|

End on the G#m

Chords (can also play a nice acoustic version with these chords) EADGBe

B:	7 9 9 8 x x
C#:	9 11 11 10 x x
E:	0 2 2 1 x x
D#:	x 6 8 8 8 x
F#	2 4 4 3 x x
G#m:	4 6 6 4 x x


Verse 1:
         B
        C#
and the pain that it brings
            E
down to the things you miss the most
             D#             F#
but you wont let yourself go
            E
No you wont let yourself

      B            C#
Cause time and time again
             E
You feel the load a little more
           D#             F#
But if you let yourself go
             E
Then we wont hit that road

Verse 2:
Cause I cant see the sky
But its yours to be seen
If you can let yourself go
If you can let yourself


Chorus:
                B
But is this the time
           F#
Is this the place?
                G#m
And "is the the end?"
             E
is all I can say
            B                       F#
I promise I never meant to turn you away
            E                 B
Why did you trust me with you heart?

Verse 2:
So consider the things
and the pain that it brings
Down to the things you miss the most
And if you let yourself go
the next thing you know

Cuz I have seen this guy
He's looking at me
Yeah and he thinks I'm something else
So you can walk yourself home
Yeah you can go

Interlude:
Even though,
you waited,
I know you can begin on your own,
you can begin on your own...

Chorus 2:
But is this the time
Is this the place?
And "is the the end?" is all I can say
I promise I never meant to turn you away
Why did you trust me with you heart?

Outro:
I promise I never meant to turn you away,
Why did you trust me with your heart?


| /  slide up
| \  slide down
| h  hammer-on
| p  pull-off
| ~  vibrato
| +  harmonic
| x  Mute note
            
Hard to play? Try these video lessons and learn fast. | Correct




comments powered by Disqus
↑ Back to top | Tablatures and chords are parodies/interpretations of the original songs. You may use it for private study, scholarship, research or language learning purposes only