>
 >
The Devil Walks In The Sand

The Devil Walks In The Sand Guitar Tabs

Cooper Temple Clause - The Devil Walks In The Sand chords, tabs, tablatures, lyrics

Guitar lessons | Add/correct | Request | Top 50 tabs Artists:  A B C D E F G H I J K L M N O P Q R S T U V W X Y Z 0-9

The Devil Walks In The Sand Guitar Tabs – Cooper Temple Clause

CD, Sheet music, Poster

Do you like The Devil Walks In The Sand? Share with your friends now
Tabs

Intro and 'some bit in the middle'

E----------------------------------------------
B----------------------------------------------
G--4-4-4-4^--4-4-4-4^--------------------------
D----------------------------------------------
A--2-2-2-2^--2-2-2-2^--------------------------
E----------------------------------------------


Next bit 

E----------------------------------------------
B----------------------------------------------
G--4--5--2--7^7-4--5--2--7^7-------------------
D--4--5--2------4--5--2------------------------
A--2--3--0------2--3--0------------------------
E----------------------------------------------

Verse

E----------------------------------------------
B----------------------------------------------
G--4-4-4-4-2-4-5-4-2-4-------------------------
D--4-4-4-4-2-4-5-4-2-4-------------------------
A--2-2-2-2-0-2-3-2-0-2-------------------------
E----------------------------------------------

2nd Guitar

E--------11----------11-----------12----------15-----
B--10-12----12-10-12----10--10-12----10-10-12----12--
G----------------------------------------------------
D----------------------------------------------------
A----------------------------------------------------
E----------------------------------------------------

Pre-Chorus

E----------------------------------------------
B----------------------------------------------
G--6-6-6-6-7-7-7-7-6-6-6-6-7-7-7-7-------------
D--7-7-7-7-7-7-7-7-7-7-7-7-7-7-7-7-------------
A--7-7-7-7-7-7-7-7-7-7-7-7-7-7-7-7-------------
E--5-5-5-5-5-5-5-5-5-5-5-5-5-5-5-5-------------

Chorus

E----------------------------------------------
B----------------------------------------------
G-9-8---9-8---9-8----9-8-9-11------9-8---------
D-----9-----9-----9--------------------9--7-7-9
A-7-6-9-7-6-9-7-6-9--7-6-7-9-------7-6-9--7-7-9
E-----7-----7-----7------------x2------7--5-5-7

2nd Guitar

E----------------------------------------------
B--10^12---------------------------------------
G----------------------------------------------
D----------------------------------------------
A----------------------------------------------
E----------------------------------------------


E----------------------------------------------
B-9--9h11p9--8---------------------------------
G----------------------------------------------
D----------------------------------------------
A----------------------------------------------
E----------------------------------------------


Back to intro
Then verse riff


Funky middle 8

E----------------------------------------------
B----------------------------------------------
G----------------------------------------------
D----------------------------------------------
A--------------5-5-10-9-7----------------------
E--0-5-7-7-5-7---------------------------------


E----------------------------------------------
B----------------------------------------------
G----------------------------------------------
D--9---7---5-----------------------------------
A--9---7---5-----------------------------------
E--7---5---3-----------------------------------

Pre-Chorus
Chorus





Comments


Popular Cooper Temple Clause tabs & chords
Been Training Dogs Bass Tabs
Film Maker Bass Tabs
Film-Maker Bass Tabs
Promises, Promises Bass Tabs
Who Needs Enemys Bass Tabs
Digital Observations Tabs
Murder Song Tabs
Waiting Game Tabs
Blind Pilots Ukulele
Waiting Game Ukulele


Song lyrics



↑ Back to top | Tablatures and chords are parodies/interpretations of the original songs. You may use it for private study, scholarship, research or language learning purposes only
© 2014 AZChords.com Contact us | Privacy policy | DMCA | Add/correct tabs | Request tabs | Top 50 tabs