» » »

Cooper Temple Clause, Solitude Tabs (ver.1)

Artists:  A B C D E F G H I J K L M N O P Q R S T U V W X Y Z # 

Solitude Tabs (ver.1)

Cooper Temple Clause Tabs
 Rating:
4/5 (4 votes)
Solitude lessons Tabs too difficult? Try these video lessons and learn fast
                

E---------------------------------------------------------
B---------------------------------------------------------
G-------------6-6^-6--------------------------------------
D--2--4--5----6-6^-6--------------------------------------
A--2--4--5----4-4^-4--------------------------------------
E--0--2--3--0---------------------------------------------

E---------------------------------------------------------
B---------------------------------------------------------
G---------------------------------------------------------
D---------------------------------------------------------
A---------------------------------------------------------
E---9-9-9-9-7-6-7-6-6-7-9---------------------------------
            
Submit corrections

comments powered by Disqus
↑ Back to top | Cooper Temple Clause Tabs for Solitude. Lyrics for acoustic guitar and electric guitar. Tablatures and chords are parodies/interpretations of the original songs. You may use it for private study, scholarship, research or language learning purposes only