» » »

Cooper Temple Clause, Sister Soul Tabs (ver.1)

Artists:  A B C D E F G H I J K L M N O P Q R S T U V W X Y Z # 

Sister Soul Tabs (ver.1)

Cooper Temple Clause Tabs
Rating:
0/5 (0 votes)
Hard to play? Try these video lessons and learn fast.
                

Intro/Verse

	Am			D	Dsus4

E----------0-----3---3-3-0----------0-----3---3-3-0------
B------------1------------------3-----3------------------
G------2-------2---2----------2---2----2----2------------
D----2---2------------------0----------------------------
A--0-----------------------------------------------------
E--------------------------------------------------------

	Fmaj7		D	D*C		Am

E----------0---------------------------------------------------
B------1-----1---0-----3-------3-------------1-----------------
G----2---2-----2-----2---2---0---0-------2-----2----2----------
D--3---------------0-------------------2---2------2------------
A--------------------------3--------0--------------------------
E--------------------------------------------------------------


Refrain

		C	G	Am		Am

E------------0--0--0---3--3--3---0--0--0------------0-----
B------------1--1--1---3--3--3---1--1--1---------1--1-----
G------------0--0--0---0--0--0---2--2--2---0--0--2--2-----
D---2--2--2--2--2--2---0--0--0---2--2--2---0--0--2--2-----
A---0--2--3--3--3--3---2--2--2---0--0--0---3--2--0--0-----
E----------------------3--3--3----------------------------


Interlude/Solo,However


   Dm    G   Bb    Am

E--5-----3---6-----0-----------------------
B--6-----3---6-----1------------------------
G--7-----4---7-----2---------------------
D--7-----5---8-----2------------------------
A--5-----5---8-----0------------------------
E--------3---6-----------------------------

Outro

  Am	    Slide	A/Bm

E--0---------/-----------0---------
B--1---------/-----------3---------
G--2---------/-----------4---------
D--2---------/-----------4---------
A--0---------/-----------0---------
E------------/---------------------
Listen to Song for Rhythm...
Hi’5’s to A.D.O. (Oede & Scotty & Majo)
            

comments powered by Disqus
↑ Back to top | Cooper Temple Clause Tabs for Sister Soul. Lyrics for acoustic guitar and electric guitar. Tablatures and chords are parodies/interpretations of the original songs. You may use it for private study, scholarship, research or language learning purposes only