» » »

Cooper Temple Clause, Promises, Promises Bass tabs (ver.1)

Artists:  A B C D E F G H I J K L M N O P Q R S T U V W X Y Z # 

Promises, Promises Bass tabs (ver.1)

Cooper Temple Clause Tabs
 Rating:
4/5 (4 votes)
Promises, Promises lessons Tabs too difficult? Try these video lessons and learn fast
1
                		   PROMISES PROMISES - Cooper Temple Clause


Tuning: EADG

Awesome song, fun to play, havent found an accurate tab so here's my closest shot at it, hope u like...

Intro/standard verse x3
G|-------------------------------------------------------------------------|
D|-------------------------------------------------------------------------|
A|-------------------------------------------------------------------------|
E|-7-7-x-x-7-7-x-x-7-7-x-x-7-7-8-------------------------------------------|

Pre-chorus/main riff x3
G|-------------------------------------------------------------------------|
D|------------5------7-----------------------------------------------------|
A|-----7-------------------------------------------------------------------|
E|-7-7----7-7----7-7----7-7-8----------------------------------------------|

Verse x3 "It's got me going inside..."
Pre-chrous x3 "You got me where you want me..."

CHORUS "Just go, go, back to your bright lights..." x2
G|-------------------------------------------------------------------------|
D|-------------------------------------------------------------------------|
A|-------------------------------------------------------------------------|
E|-8-8-8-8-8-8-8-8-8-8-8-8-8-10-10-8-7-7-7-7-7-7-7-7-7-7-7-7-7-7-7-7-7-----|

Chorus end "you celebrate things, you celebrate things, forget about me..."
G|-------------------------------------------------------------------------|
D|-------------------------------------------------------------------------|
A|-------------------------------------------------------------------------|
E|-8-8-8-8-8-8-8-8-8-8-8-8-8-8-8-10-10-10-10-10-10-10-10-12-12-12-12-12-12-|

(cont.) "Oh you messed it up good yeah this kids just a joke"
G|-------------------------------------------------------------------------|
D|-----------------------------------------------------------------------14|
A|----------------------------------------------------12--12-12-10-12-14---|
E|-12-12-12-12-12-12-12-12-12-12-11-10-10-10-10-10-10----------------------|

Verse x3
pre-chorus x4
Chorus

Break 1st Bar "baby cant shoot straight"
G|-------------------------------------------------------------------------|
D|-9-9-9-9-9-9-9-9-9-9-9-9-9-9-9-9-9-9-9-9-9-9-9-9-9-9-9-9-9-9-9-9-9-9-9-9-|
A|-------------------------------------------------------------------------|
E|-------------------------------------------------------------------------|

Break 2nd bar (distorted) "Gotta take blows its the way that you grow"
G|-------------------------------------------------------------------------|
D|-------------------------------------------------------------------------|
A|-14-14-14-14-14-14-14-14-14-14-14-14-14-14-14-14-14-14-14-14-14-14-14\2--|
E|-------------------------------------------------------------------------|

Break, last bar "
G|-------------------------------------------------------------------------|
D|----------------------------------------------------------------------14-|
A|-10-10-10-10-10-10-10-10-10-10-10-10-10-9-9-9-9-9-9-12-12-12-10-12-14----|
E|-------------------------------------------------------------------------|

Pause, dont play for 2 bars, then prechorus/main riff until outro.

I think thats about all you need to know, any other little tweaks u can probably sort out urselves!

| /  slide up
| \  slide down
| h  hammer-on
| p  pull-off
| ~  vibrato
| +  harmonic
| x  Mute note
            
Submit corrections

comments powered by Disqus
↑ Back to top | Cooper Temple Clause Bass for Promises, Promises. Lyrics for acoustic guitar and electric guitar. 1 Tablatures and chords are parodies/interpretations of the original songs. You may use it for private study, scholarship, research or language learning purposes only