» » »

Panzer Attack Tabs (ver.1)

Artists:  A B C D E F G H I J K L M N O P Q R S T U V W X Y Z # 

Panzer Attack Tabs (ver.1)

Cooper Temple Clause
Rating:
0/5 (0 votes)

Hard to play? Try these video lessons and learn fast.
                
Guitar

E------------------------------------------
B------------------------------------------
G-9----6-7-8----9----6-7-3-3-3-------------
D-9-------------9--------------------------
A-7----4-5-6----7----4-5-1-1-1-------------
E-0-------------0--------------------------

E------------------------------------------
B------------------------------------------
G------------------------------------------
D--5---3---7---5---------------------------
A--5---3---7---5---------------------------
E--3---1---5---3---------------------------
            
Hard to play? Try these video lessons and learn fast. | Correct




comments powered by Disqus
↑ Back to top | Tablatures and chords are parodies/interpretations of the original songs. You may use it for private study, scholarship, research or language learning purposes only