» » »

Mansell Tabs (ver.1)

Artists:  A B C D E F G H I J K L M N O P Q R S T U V W X Y Z # 

Mansell Tabs (ver.1)

Cooper Temple Clause
Rating:
0/5 (0 votes)

Hard to play? Try these video lessons and learn fast.
                Mansell	

Variations of this throughout

E---------------------------------------------------
B---------------------------------------------------
G---------------------------------------------------
D---------------------------------------------------
A--5-------5----------------------------------------
E----4--------4-------------------------------------

E---------------------------------------------------
B---------------------------------------------------
G--7-7----7-7------7----7-------7-8-----------------
D--7-7----7-7------7-6--7-6-----7-6----9-8----------
A--5-5----5-5------5-6--5-6-----5-6----7-7----------
E----4----4----------4----4-------4-----------------
            
Hard to play? Try these video lessons and learn fast. | Correct




comments powered by Disqus
↑ Back to top | Tablatures and chords are parodies/interpretations of the original songs. You may use it for private study, scholarship, research or language learning purposes only