» » »

I'll Still Write Tabs (ver.1)

Artists:  A B C D E F G H I J K L M N O P Q R S T U V W X Y Z # 

I'll Still Write Tabs (ver.1)

Cooper Temple Clause
Rating:
0/5 (0 votes)

Hard to play? Try these video lessons and learn fast.
                Ill Still Write

E--3--2----------0-------------------------------------
B--3--3----------0-------------------------------------
G--0--4----------1-------------------------------------
D--0--4----------2-------------------------------------
A--2--2---x3-----2-------------------------------------
E--3-------------0-------------------------------------

Fills
E---------2------------5------------------------------
B---2-3-2--------2-3-2--------------------------------
G-----------------------------------------------------
D-----------------------------------------------------
A-----------------------------------------------------
E-----------------------------------------------------

A bit near the end

E--3--2--0--5--7--------------------------------------
B--3--3--0--7--9--------------------------------------
G--0--4--1--7--9--------------------------------------
D--0--4--2--7--9--------------------------------------
A--2--2--2--5--7--------------------------------------
E--3-----0--------------------------------------------
            
Hard to play? Try these video lessons and learn fast. | Correct




comments powered by Disqus
↑ Back to top | Tablatures and chords are parodies/interpretations of the original songs. You may use it for private study, scholarship, research or language learning purposes only