» » »

Cooper Temple Clause, Film Maker Tabs (ver.1)

Artists:  A B C D E F G H I J K L M N O P Q R S T U V W X Y Z # 

Film Maker Tabs (ver.1)

Cooper Temple Clause Tabs
 Rating:
4/5 (4 votes)
Film Maker lessons Tabs too difficult? Try these video lessons and learn fast
1
                Film-Maker

E----------------------------------------------
B----------------------------------------------
G----------------------------------------------
D----------------------------------------------
A--3*-3*-3*-3*-3*------------------------------
E-----------------3*-3*-3*-3*-3-3-3-3-3-3------


*= harmonic

E----------------------------------------------
B----------------------------------------------
G----------------------------------------------
D------------4---------------4-----------------
A--------------4-0-------------4-0-------------
E--2-2-2-2-2-------2-2-2-2-2------------------- x 2


E----------------------------------------------
B----------------------------------------------
G----------------------------------------------
D------------4---------------4-----------------
A--------------4-0-------------4-0-------------
E--3-3-3-3-3-------3-3-3-3-3------------------- x 2



E---------------------------------------------
B---------------------------------------------
G---------------------------------------------
D-7-----5-------------------------------------
A-7-----5-------------------------------------
E-5-----3-------------------------------------
            
Submit corrections

comments powered by Disqus
↑ Back to top | Cooper Temple Clause Tabs for Film Maker. Lyrics for acoustic guitar and electric guitar. 1 Tablatures and chords are parodies/interpretations of the original songs. You may use it for private study, scholarship, research or language learning purposes only