» » »

Cooper Temple Clause, Amber Tabs (ver.1)

Artists:  A B C D E F G H I J K L M N O P Q R S T U V W X Y Z # 

Amber Tabs (ver.1)

Cooper Temple Clause Tabs
Rating:
0/5 (0 votes)
Amber lessons Tabs too difficult? Try these video lessons and learn fast
                
E-----1------1-----0-----3-----3-----3---0-----0-----0---1-----1-----1-
B-------3------3-----------5-----5---------3-----3---------3-----3-----
G---------2------2-----5-----5-----5---2-----2-----2---------2-----2---
D--0---------------------------------------------------0---------------
A----------------------------------------------------------------------
E----------------------------------------------------------------------

E----------------------------------------------------------
B--10--12--------------------------------------------------
G--10--12--------------------------------------------------
D--10--12--------------------------------------------------
A--8---10--------------------------------------------------
E----------------------------------------------------------

E----------------------------------------------------------
B----------------------------------------------------------
G--7--5----7--5--------------------------------------------
D--7--5----7--5--------------------------------------------
A--5--3----5--3--------------------------------------------
E----------------------------------------------------------

E----------------------------------------------------------
B----------------------------------------------------------
G----------------------------------------------------------
D--3--5----------------------------------------------------
A--3--5----------------------------------------------------
E--1--3----------------------------------------------------


E--5-3-1-0-1-3-1-0-----------------------------------------
B------------------3---------------------------------------
G----------------------------------------------------------
D-----------------------------------------5----------------
A-----------------------------------------5----------------
E-----------------------------------------3----------------
            

comments powered by Disqus
↑ Back to top | Cooper Temple Clause Tabs for Amber. Lyrics for acoustic guitar and electric guitar. Tablatures and chords are parodies/interpretations of the original songs. You may use it for private study, scholarship, research or language learning purposes only