>
 >
Guilty

Guilty Guitar Tabs

Cooper Alice - Guilty chords, tabs, tablatures, lyrics

Guitar lessons | Add/correct | Request | Top 50 tabs Artists:  A B C D E F G H I J K L M N O P Q R S T U V W X Y Z 0-9

Guilty Guitar Tabs – Cooper Alice

CD, Sheet music, Poster

Do you like Guilty? Share with your friends now
Tabs
Intro:
  Gtr. 1 (Rhythm)
e|-------------------------------------------------------------------------
B|-------------------------------------------------------------------------
G|-------------------------------------------------------------------------
D|---2----------------------------2----------------------------------------
A|---2----------------------------2----------------------------------------
E|---0----------------------------0----------------------------------------

  Gtr. 2 (Lead)
e|-------------------------------------------------------------------------
B|-------------------------------------------------------------------------
G|-------------------------------------------------------------------------
D|------5-6--------5~----5-6---------5-6-------5~---5-6----------7---------
A|-----------7~-7-----7------7------------7~-7----7-----7---7b(9)----------
E|-------------------------------------------------------------------------


Rhythm for Verses and chorus:

e|---------------------------------------------------------
B|---------------------------------------------------------
G|--2---2------6--6/7---7-------9--7-------(repeat)--------
D|--2---2------6--6/7---7-------9--7-----------------------
A|--0---0------4--4/5---5-------7--5-----------------------
E|---------------------------------------------------------


Rhythm for Pre-Chorus ("If you call that guilty...")
e|------------------------------------------------
B|------------------------------------------------
G|------------6--6/7--7---------------------------
D|--4-----4---6--6/7--7----------------(repeat)---
A|--4-----4---4--4/5--5-----3-2-------------------
E|--2-----2---------------------0-----------------


Intro Reprise:

  Gtr. 1
e|-------------------------------------------------------------------------
B|-------------------------------------------------------------------------
G|-------------------------------------------------------------------------
D|---.-.-.-.-.-.-.-.-.-.-.-.-.-.---------.-.-.-.-.-.-.-.-.-.-.-.-.-.-------
A|---2-2-4-2-2-2-4-2-2-2-4-2-2-2---------2-4-2-2-2-4-2-2-2-4-2-2-2-4-------
E|---0-0-0-0-0-0-0-0-0-0-0-0-0-0--3b--0--0-0-0-0-0-0-0-0-0-0-0-0-0-0------

  Gtr. 2 (Lead)                              (solo starts:)
e|-----------------------------------------------------5--5-------5------5-5-
B|-----------------------------------------------------5--5-------5------5-5-
G|------------------------------------------------7b(9)-----7b(9)---7(9)-----
D|------5-6--------5~----5-6--------------5-6--------------------------------
A|-----------7~-7-----7------7----------------7~-----------------------------
E|---------------------------------------------------------------------------

Solo: (Rhythm is same as Verse's

e|--------5-5-5---8-7-5--5------------------5-5--8-7-5------17--------17----17--17---
B|--------5-5-5---8-7-5----8-7-5------------5-5--8-7-5--/17---20b(22)---20b----------
G|--7b(9)---------------------------5b-----------------------------------------------
D|--------------------------------7----7---------------------------------------------
A|-----------------------------------------------------------------------------------
E|-----------------------------------------------------------------------------------

Back to Verse.

Next lick: 
("if you call that guilty")           ("then that's what I am")
e|-------------------------------------------------------------------------
B|-------------------------------------------------------------------------
G|-----------9-9-9--11~-----------------------------9-9--------------------
D|---7--/11---------------------------------7--/11-------7~----------------
A|-------------------------------------------------------------------------
E|-------------------------------------------------------------------------

Back to original intro.

The Bridge:
      ("Bad boy on a summer night")   Then this lick from the other guitar:
e|--9---x-x--9---x-x--9--x-x-x--9\-----------------------------9b(10)r9----
B|--10--x-x--10--x-x--10-x-x-x--10\-------------------------10-------------
G|--11--x-x--11--x-x--11-x-x-x--11\---------------------/11----------------
D|--11-------11-------11--------11\----------------------------------------
A|-------------------------------------------------------------------------
E|-------------------------------------------------------------------------
  ("the heat makes me mean an di want to fight")   Lick:
e|--9---x-x--9---x-x--9--x-x-x--9\-----------------------------------------
B|--9---x-x--9---x-x--9--x-x-x--9\--------------------------12b(14)r12-----
G|--9---x-x--9---x-x--9--x-x-x--9\-----------------------13----------------
D|--11-------11-------11--------11\------------------/14-------------------
A|-------------------------------------------------------------------------
E|-------------------------------------------------------------------------
  ("with my pedal on the metal and i do...")   ("what i wanna do")
e|--7--x-x--7--x-x-7--x-x-x--7\----------------------2--x-x--2------0------
B|--7--x-x--7--x-x-7--x-x-x--7\----------------------2--x-x--2------0------
G|--7--x-x--7--x-x-7--x-x-x--7\----------------------2--x-x--2------1------
D|--9-------9------9---------9\----------------------4-------4------2------
A|-------------------------------------------------------------------------
E|-------------------------------------------------------------------------

Repeat the first two parts of the bridge for "bad girls make me feel all right"

Then:
  ("Golly gee, it's wrong to be so...")
e|-------------------------------------------------------------------------
B|-------------------------------------------------------------------------
G|-------------------------------------------------------------------------
D|--2-2-2-2-2-2-2-2-4-4-4-4-4-4-4-4----------------------------------------
A|--0-0-0-0-0-0-0-0-2-2-2-2-2-2-2-2----------------------------------------
E|-------------------------------------------------------------------------

Back to chorus

Bakcground Lick:

e|--5-5-5-5---8-7-5---5----------------------------------------------------
B|--5-5-5-5---8-7-5-----8-7-5------------(repeat)--------------------------
G|--------------------------------5b(7)------------------------------------
D|-----------------------------7-------------------------------------------
A|-------------------------------------------------------------------------
E|-------------------------------------------------------------------------

Back to Intro Reprise with this added lick:
e|----------12----------
B|----------------------
G|---12h14--------------
D|----------------------
A|----------------------
E|----------------------

Bunch of Licks here:
 My conscience is on vacation, in acute degeneration
e|--------------------------------------------17-17~--17-17~--17-17\-------
B|-------------------------------------------------------------------------
G|-------------------------------------------------------------------------
D|----------------------10-9-7---------------------------------------------
A|-------------------------------------------------------------------------
E|-------------------------------------------------------------------------
  Willpower has sunk to an all-time low
e|--------------------------------------------------------------------------
B|---------------------10-8-------------------------------------------------
G|---------6---7-6---9------9-8-7-------------------------------------------
D|----/7-7---7-----7--------------10-7-6------------------------------------
A|---------------------------------------9----------------------------------
E|--------------------------------------------------------------------------
 ("If you call that guilty")            ("then that's what I am")
e|-------------------------------------------10b(12)r10p8------------------
B|--8b(10)r8p5--8b(10)r8p5-8b(10)-8b(10)-----------------10----------------
G|----------------------------------------------------------7b(9)r7p5------
D|--------------------------------------------------------------------7----
A|-------------------------------------------------------------------------
E|-------------------------------------------------------------------------

Then there's an outro solo, just improvised A minor pentatonic stuff. Insert yuor own!





Comments


Popular Cooper Alice tabs & chords
Stolen Prayer Chords
Halo Of Flies Tabs
I'm Tabs
Lost In America Tabs
No More Mr Nice Guy Tabs
Only Women Bleed 1 Tabs
Poison Tabs
Poison (Intro) Tabs
Poison 1 Tabs
Stolen Prayer Tabs


Song lyrics



↑ Back to top | Tablatures and chords are parodies/interpretations of the original songs. You may use it for private study, scholarship, research or language learning purposes only
© 2014 AZChords.com Contact us | Privacy policy | DMCA | Add/correct tabs | Request tabs | Top 50 tabs