» » »

Cool For August, Walk Away Chords (ver.1)

Artists:  A B C D E F G H I J K L M N O P Q R S T U V W X Y Z # 

Walk Away Chords (ver.1)

Cool For August Tabs
 Rating:
4.2/5 (5 votes)
Walk Away lessons Tabs too difficult? Try these video lessons and learn fast
1
                Cool For August


Chords
 E D5 Asus Dsus Bm D A A9 (not sure if A9 is the right name, but we'll use it)
---0---0----0---2--2-0-0-|
-0-x---0----3---3--3-2-3-|
-1-2---2----2---4--2-2-2-|
-2-0---2----0---4--0-2-2-|
-2-----0--------2----0-0-|
-------------------------|

Here's the basic rythm for the intro & verses
 E        D*
-----------------------------------------------|
-----------------------------------------------|
-1--1-1-1-2--2---2--2-2-6--6-6---4--4-4-4--4---|
-2--2-2-2-0--0-0-0--0-0-0--0-0-0-0--0-0-0--0-0-|
-2--2-2-2--------------------------------------|
-----------------------------------------------|

 Asus                    Dsus  (piano part during prechorus)
-----0-----------0-----------0-----------|
---0---0---0---0---0---0---0---0---0-----|
---------2-----------2-----------2-------|
-------------------------0-----------0---|
-0-----------0---------------------------|
-----------------------------------------|

***********************************

E D* E D*

E            D*
 Living in a cast iron chainned to an eight legged monster
E          D*
 The bonds that surround my home they look like flies
E              D*
 Nothing to prevent myself from getting any colder
E          D*
 And all I see is the dirt behind your shadow

Asus4
Drowned I will resolve the reason I'm stuck
Dsus4
Here and I see the door and it's all I ever needed and the

Bm          D                 A A9 A
Time that you waste to walk away
            Bm          D                   A A9 A
Becomes the time that you regret you walk away

E D5

E         D*
 They say that I live like a dog, but I think I'm living
E          D*
 A kitchen full of nothing, but there'll be something soon
E  D*
 I can see a light above me, could it be my angel?
E        D*
 Could it be my luck, to keep this struggle

Asus4
On I will resolve the reason I'm stuck
Dsus4
Here and I see the door and it's all I ever needed and the


Bm          D                 A A9 A
Time that you waste to walk away
            Bm          D                   A A9 A
Becomes the time that you regret you walk away

E D5  E D5
E D5  E D5


Asus4
 I will resolve the reason I'm stuck
Dsus4
Here and I see the door and it's all I ever needed and the


Bm          D                 A A9 A
Time that you waste to walk away
            Bm          D                   A A9 A
Becomes the time that you regret you walk away
        Bm          D                 A A9 A
All the time that you waste to walk away

E D5
            
Submit corrections

comments powered by Disqus
↑ Back to top | Cool For August Chords for Walk Away. Lyrics for acoustic guitar and electric guitar. 1 Tablatures and chords are parodies/interpretations of the original songs. You may use it for private study, scholarship, research or language learning purposes only