>
 >
Dont Wanna Be Here

Dont Wanna Be Here Guitar Tabs

Cool For August - Dont Wanna Be Here chords, tabs, tablatures, lyrics

Guitar lessons | Add/correct | Request | Top 50 tabs Artists:  A B C D E F G H I J K L M N O P Q R S T U V W X Y Z 0-9

Dont Wanna Be Here Guitar Tabs – Cool For August

CD, Sheet music, Poster

Do you like Dont Wanna Be Here? Share with your friends now
Tabs
Don't Wanna Be Here
Cool For August


Chords
 E Bm  D  A B5 A5
-0--2--2--0-------|
-0--3--3--2-------|
-1--4--2--2--4--2-|
-2--4--0--2--4--2-|
-2--2-----0--2--0-|
-0----------------|

intro:

 E Bm D A (chords played once before lead enters)

 E         Bm    D         A
-----12--------------12------|
---x-16b17---------x-16b17---|
---x---------------x---------|
-----------------------------|
-----------------------------|
-----------------------------|

 E           Bm            D           A
-----------------------------------------|
-----------------------------------------|
-13/14-13-11-13/14\13-11-9-14/16-14-13-9-|  (play main riff 2x)
-----------------------------------------|
-11/12-11--9-11/12\11--9-7-12/14-12-11-7-|
-----------------------------------------|

E                      Bm                   D          A
 Something's  wrong my mind is running won't be long before I'm losing faith
E               Bm           D                A
 I will crawl into my soul to find a way to escape this sorry world
E             Bm                       D                 A                     E
 Don't take offense by my cold hearted nature, I can't escape the dreams in my head
             Bm                   D               A
And where is voice of yesterday's cries? Take me away from all your lies


E      Bm              D      A
 And I,  I don't wanna be here for the rest of our life
E      Bm              D       A
 And I,  I don't wanna be here,

 E           Bm            D           A
-----------------------------------------|
-----------------------------------------|
-13/14-13-11-13/14\13-11-9-14/16-14-13-9-|  
-----------------------------------------|
-11/12-11--9-11/12\11--9-7-12/14-12-11-7-|
-----------------------------------------|

E                   Bm                   D                   A
 Something's wrong I don't belong in here staring back at people they talk about
E                   Bm               D                 A
 Whispering words to spite my passion but I'll move on, maybe I'll live in chance
E                 Bm                       D                   A                   E
 It don't make sense why you're just like rest. It's easy to see I'm the one you attest
            Bm                  D                 A
All this spiteful life as the changing hours of you pass before my eyes

E      Bm              D      A
 And I,  I don't wanna be here for the rest of our life
E      Bm              D       A
 And I,  I don't wanna be here,


B5 A5  B5 A5  B5 A5  B5


E                   Bm             D                         A
 Downtown, isn't the future there? All my respect for you it washed away
E                Bm                  D                          A
 Now that you've come back to me you give me yourself, that's all that I need

E      Bm              D      A
 And I,  I don't wanna be here for the rest of our life
E      Bm              D       A
 And I,  I don't wanna be here, you know I'll be

 here.                                  you know I'll be 
 E           Bm            D           A
-----------------------------------------|
-----------------------------------------|
-13/14-13-11-13/14\13-11-9-14/16-14-13-9-|
-----------------------------------------|
-11/12-11--9-11/12\11--9-7-12/14-12-11-7-|
-----------------------------------------|

 here.
 E           Bm            D           A              E
--------------------------------------------9h10p9-------| (this last part is played faintly)
---------------------------------------------------10-12-|
-13/14-13-11-13/14\13-11-9-14/16-14-13-9-----------------|
---------------------------------------------------------|
-11/12-11--9-11/12\11--9-7-12/14-12-11-7-----------------|
---------------------------------------------------------|





Comments


Popular Cool For August tabs & chords
Denial Chords
Hey You Chords
New Song Chords
Spinning Chords
Walk Away Chords
Denial Ukulele
Of You Ukulele
Spinning Ukulele
Trials Ukulele
Wheels Ukulele


Song lyrics



↑ Back to top | Tablatures and chords are parodies/interpretations of the original songs. You may use it for private study, scholarship, research or language learning purposes only
© 2014 AZChords.com Contact us | Privacy policy | DMCA | Add/correct tabs | Request tabs | Top 50 tabs