» » »

Wake Up With A Smile Tabs (ver.2)

Artists:  A B C D E F G H I J K L M N O P Q R S T U V W X Y Z # 

Wake Up With A Smile Tabs (ver.2)

Consumed
Rating:
0/5 (0 votes)

Hard to play? Try these video lessons and learn fast.
                

-|----------------------------------------------------------------|----------
-|----------------------------------------------------------------|----------
-|-10--------------10-9----9-10----------10-9----9-10-------------|----------
-|-10x8----101010-------10-------121212-------10---------77777----|----------
-|--8------101010----------------121212----------------8888888----|----------
-|----------8-8-8----------------101010----------------6666666----|----------
    .                            ......                .......                

-|-----------------------------|-------------------|-------------------------
-|-----------------------------|-------------------|-------------------------
-|-----------------------------|----5---7----------|-------------------------
-|-----------------------------|-3--5---7--8-------|-------------------------
-|--88888888-77777777-88888888-|-3--3---5--8-------|-------------------------
-|-----------------------------|-1---------6-------|-------------------------
    lead next bit                work out rhythm and palm muting              

-|-----------------------------------------|---------------------------------
-|-----------------------------------------|---------------------------------
-|-----------------------------------------|---------------------------------
-|------7-5-5------53----------------5-----|---------------------------------
-|--888--------333----5-5-5/8-7--------8---|---------------------------------
-|-------------------------------666-------|---------------------------------
            
Hard to play? Try these video lessons and learn fast. | Correct




comments powered by Disqus
↑ Back to top | Tablatures and chords are parodies/interpretations of the original songs. You may use it for private study, scholarship, research or language learning purposes only