» » »

Consumed, Take It On The Chin Tabs (ver.1)

Artists:  A B C D E F G H I J K L M N O P Q R S T U V W X Y Z # 

Take It On The Chin Tabs (ver.1)

Consumed Tabs
 Rating:
4/5 (4 votes)
Take It On The Chin lessons Tabs too difficult? Try these video lessons and learn fast

WWW.AZCHORDS.COM | Consumed Tabs - Take It On The Chin Tabs (ver. 1)


TAKE IT ON THE CHIN
                             As recorded by Consumed
                      (From the 2003 Album PISTOLS AT DAWN)

Arranged by James Stewart

Gtr I (E A D G B E) - 'Untitled'
Gtr II (E A D G B E) - 'Untitled'

   Intro
    Q=175
   4/4
    Gtr I
    E E E E E E E E   E E E E E E S S E
||------------------|-------------------|
||o-----------------|-------------------|
||------------------|-------------------|
||----------6-------|-------------------|
||o-4-4---4---4---4-|-5-4---4-4-4-4h5p4-|
||------------------|-------------------|


  E E E E E E E E   E E E E E E S S E
|-----------------|---------------------||
|-----------------|--------------------o||
|-----------------|---------------------||
|---------6-------|---------------------||
|-4-4---4---4---4-|-5-4---4-4-4-4h5p4--o||
|-----------------|---------------------||


 Pre-Verse
  A5                          G#5
  E E E E E E E E    E  E E E E E S S E
|-----------------|---------------------|
|-----------------|---------------------|
|-----------------|---------------------|
|---------6-------|---------------------|
|-4-4---4---4---4-|--5--4---4-4-4-4h5p4-|
|-----------------|---------------------|
|
| Gtr II
| W                 +H        H
|-----------------|---------------------|
|-----------------|---------------------|
|-----------------|---------------------|
|-7---------------|-(7)-------6---------|
|-7---------------|-(7)-------6---------|
|-5---------------|-(5)-------4---------|


  F#5                         G#5
  E E E E E E E E    E  E E E E E S S E
|-----------------|----------------------|
|-----------------|----------------------|
|-----------------|----------------------|
|---------6-------|----------------------|
|-4-4---4---4---4-|--5--4---4-4-4-4h5p4--|
|-----------------|----------------------|
|
| W                 +H        H
|-----------------|----------------------|
|-----------------|----------------------|
|-----------------|----------------------|
|-4---------------|-(4)-------6----------|
|-4---------------|-(4)-------6----------|
|-2---------------|-(2)-------4----------|


  A5                          B5
  E E E E E E E E    E  E E E E E S S E
|-----------------|---------------------|
|-----------------|---------------------|
|-----------------|---------------------|
|---------6-------|---------------------|
|-4-4---4---4---4-|--5--4---4-4-4-4h5p4-|
|-----------------|---------------------|
|
| W                 +H        H
|-----------------|---------------------|
|-----------------|---------------------|
|-----------------|---------------------|
|-7---------------|-(7)-------9---------|
|-7---------------|-(7)-------9---------|
|-5---------------|-(5)-------7---------|


  C#5
   E E E E E E E E     E  E E E E E S S E
|------------------|-----------------------|
|------------------|-----------------------|
|------------------|-----------------------|
|----------6-------|-----------------------|
|--4-4---4---4---4-|---5--4---4-4-4-4h5p4--|
|------------------|-----------------------|
|
|  W                  +W
|------------------|-----------------------|
|------------------|-----------------------|
|------------------|-----------------------|
|-11---------------|-(11)------------------|
|-11---------------|-(11)------------------|
|--9---------------|--(9)------------------|


     E  E E  E  E  E E  E    E  E E  E  E  E S S  E
||------------------------|-------------------------|
||o-----------------------|-------------------------|
||------------------------|-------------------------|
||--------------6---------|-------------------------|
||o--4--4----4-----4----4-|--5--4----4--4--4-4h5p=4-|
||------------------------|-------------------------|
|
|    E  Q    E  E  Q    E    E  Q    E  E  Q      E
||------------------------|-------------------------|
||o-----------------------|-------------------------|
||--13-13---13-13-13---13-|-13-13---13-11-11-----11-|
||------------------------|-------------------------|
||o-----------------------|-------------------------|
||------------------------|-------------------------|


  E E E E E E E E    E  E E  E  E  E S S  E
|-----------------|--------------------------||
|-----------------|-------------------------o||
|-----------------|--------------------------||
|---------6-------|--------------------------||
|-4-4---4---4---4-|--5--4----4--4--4-4h5p=4-o||
|-----------------|--------------------------||
|
| E Q   E E Q   E    E  Q    E  E  Q      E
|-----------------|--------------------------||
|-----------------|-------------------------o||
|-9-9---9-9-9---9-|-13-13---13-13-13-----13--||
|-----------------|--------------------------||
|-----------------|-------------------------o||
|-----------------|--------------------------||


  E E E E E E E E   E E E E E E S S E   E E E E E E E E   E E E E E E S S E
|-----------------|-------------------|-----------------|--------------------|
|-----------------|-------------------|-----------------|--------------------|
|-----------------|-------------------|-----------------|--------------------|
|---------6-------|-------------------|---------6-------|--------------------|
|-4-4---4---4---4-|-5-4---4-4-4-4h5p4-|-4-4---4---4---4-|-5-4---4-4-4-4h5p4--|
|-----------------|-------------------|-----------------|--------------------|
|
| E Q   E E Q   E   E Q   E E Q     E   E Q   E E Q   E   E Q   E E Q     E
|-----------------|-------------------|-----------------|--------------------|
|-----------------|-------------------|-----------------|--------------------|
|-----------------|-------------------|-----------------|--------------------|
|-----------------|-------------------|-----------------|--------------------|
|-9-9---9-7-7---7-|-6-6---6-5-5-----5-|-9-9---9-7-7---7-|-5-5---5-3-3-----3--|
|-----------------|-------------------|-----------------|--------------------|


 Pre-Verse Bass Solo
  Wx2
|--------|
|--------|
|--------|
|--------|
|--------|
|--------|


   Verse
    E E E E E E E E   E E E E E E S S E
||------------------|-------------------|
||o-----------------|-------------------|
||------------------|-------------------|
||----------6-------|-------------------|
||o-4-4---4---4---4-|-5-4---4-4-4-4-5-4-|
||------------------|-------------------|


  E E E E E E E E   E E E E E E S S E
|-----------------|--------------------||
|-----------------|-------------------o||
|-----------------|--------------------||
|---------6-------|--------------------||
|-4-4---4---4---4-|-5-4---4-4-4-4-5-4-o||
|-----------------|--------------------||


  A5                        G#5       F#5                       G#5
  E E E E E E E E   E E E E E E E E   E E E E E E E E   E E E E E E E E
|-----------------|-----------------|-----------------|------------------|
|-----------------|-----------------|-----------------|------------------|
|-----------------|-----------------|-----------------|------------------|
|-7-7-7-7-7-7-7-7-|-7-7-7-7-6-6-6-6-|-4-4-4-4-4-4-4-4-|-4-4-4-4-6-6-6-6--|
|-7-7-7-7-7-7-7-7-|-7-7-7-7-6-6-6-6-|-4-4-4-4-4-4-4-4-|-4-4-4-4-6-6-6-6--|
|-5-5-5-5-5-5-5-5-|-5-5-5-5-4-4-4-4-|-2-2-2-2-2-2-2-2-|-2-2-2-2-4-4-4-4--|


   Chorus
    C#5                                B5
     E  E E  E  E  E E  E    E  E E  E  E  E E  E
||------------------------|-----------------------|
||o-----------------------|-----------------------|
||------------------------|-----------------------|
||--11-11---11-11-11---11-|-11-11---11--9--9----9-|
||o-11-11---11-11-11---11-|-11-11---11--9--9----9-|
||---9--9----9--9--9----9-|--9--9----9--7--7----7-|
|
|   Gtr II
|    E  E E  E  E  E E  E    E  E E  E  E  E E  E
||------------------------|-----------------------|
||o-----------------------|-----------------------|
||--13-13---13-13-13---13-|-13-13---13-11-11---11-|
||---x--x----x--x--x----x-|--x--x----x--x--x----x-|
||o-11-11---11-11-11---11-|-11-11---11--9--9----9-|
||------------------------|-----------------------|


  A5
  E E E E E E E E    E  E E  E  E  E E  E
|-----------------|------------------------||
|-----------------|-----------------------o||
|-----------------|------------------------||
|-7-7---7-7-7---7-|--7--7----7--7--7----7--||
|-7-7---7-7-7---7-|--7--7----7--7--7----7-o||
|-5-5---5-5-5---5-|--5--5----5--5--5----5--||
|
| E E E E E E E E    E  E E  E  E  E E  E
|-----------------|------------------------||
|-----------------|-----------------------o||
|-9-9---9-9-9---9-|-13-13---13-13-13---13--||
|-x-x---x-x-x---x-|--x--x----x--x--x----x--||
|-7-7---7-7-7---7-|-11-11---11-11-11---11-o||
|-----------------|------------------------||


  A5                        G#5       F#5                       G#5
  E E E E E E E E   E E E E E E E E   E E E E E E E E   E E E E E E E E
|-----------------|-----------------|-----------------|------------------|
|-----------------|-----------------|-----------------|------------------|
|-----------------|-----------------|-----------------|------------------|
|-7-7-7-7-7-7-7-7-|-7-7-7-7-6-6-6-6-|-4-4-4-4-4-4-4-4-|-4-4-4-4-6-6-6-6--|
|-7-7-7-7-7-7-7-7-|-7-7-7-7-6-6-6-6-|-4-4-4-4-4-4-4-4-|-4-4-4-4-6-6-6-6--|
|-5-5-5-5-5-5-5-5-|-5-5-5-5-4-4-4-4-|-2-2-2-2-2-2-2-2-|-2-2-2-2-4-4-4-4--|


   Guitar Solo (ish!)
    C#5               B5                A5                        B5
    E E E E E E E E   E E E E E E Q     E E E E E E E E   E E E E E E Q    4x
||--4-5---2-4---0-2-|-----------------|-4-5---2-4---0-2-|------------------||
||o-----------------|---4-5-7-5-4-5---|-----------------|---4-5-7-5-4-5---o||
||------------------|-----------------|-----------------|------------------||
||------------------|-----------------|-----------------|------------------||
||o-----------------|-----------------|-----------------|-----------------o||
||------------------|-----------------|-----------------|------------------||
|
|   Gtr II
|   PM------------------------------------------------------------------|
|   E E E E E E E E   E E E E E E E E   E E E E E E E E   E E E E E E E E  4x
||------------------|-----------------|-----------------|------------------||
||o-----------------|-----------------|-----------------|-----------------o||
||--6-6-6-6-6-6-6-6-|-4-4-4-4-4-4-4-4-|-2-2-2-2-2-2-2-2-|-2-2-2-2-4-4-4-4--||
||--6-6-6-6-6-6-6-6-|-4-4-4-4-4-4-4-4-|-2-2-2-2-2-2-2-2-|-2-2-2-2-4-4-4-4--||
||o-4-4-4-4-4-4-4-4-|-2-2-2-2-2-2-2-2-|-0-0-0-0-0-0-0-0-|-0-0-0-0-2-2-2-2-o||
||------------------|-----------------|-----------------|------------------||


  F#5               A5     B5
  W          +H     H      W
|----------|-------------|------|
|----------|-------------|------|
|----------|-------------|------|
|-4--------|-(4)----7----|-9----|
|-4--------|-(4)----7----|-9----|
|-2--------|-(2)----5----|-7----|


   Chorus
    C#5                                   B5
     E  E  E  E  E  E  E  E    E  E  E  E  E  E  E  E
||--------------------------|-------------------------|
||o-------------------------|-------------------------|
||--------------------------|-------------------------|
||--11-11-11-11-11-11-11-11-|-11-11-11-11--9--9--9--9-|
||o-11-11-11-11-11-11-11-11-|-11-11-11-11--9--9--9--9-|
||---9--9--9--9--9--9--9--9-|--9--9--9--9--7--7--7--7-|
|
|   Gtr II
|    E  E  E  E  E  E  E  E    E  E  E  E  E  E  E  E
||--------------------------|-------------------------|
||o-------------------------|-------------------------|
||--13-13-13-13-13-13-13-13-|-13-13-13-13-11-11-11-11-|
||---x--x--x--x--x--x--x--x-|--x--x--x--x--x--x--x--x-|
||o-11-11-11-11-11-11-11-11-|-11-11-11-11--9--9--9--9-|
||--------------------------|-------------------------|


  A5
  E E E E E E E E    E  E  E  E  E  E  E  E
|-----------------|--------------------------||
|-----------------|-------------------------o||
|-----------------|--------------------------||
|-7-7-7-7-7-7-7-7-|--7--7--7--7--7--7--7--7--||
|-7-7-7-7-7-7-7-7-|--7--7--7--7--7--7--7--7-o||
|-5-5-5-5-5-5-5-5-|--5--5--5--5--5--5--5--5--||
|
| E E E E E E E E    E  E  E  E  E  E  E  E
|-----------------|--------------------------||
|-----------------|-------------------------o||
|-9-9-9-9-9-9-9-9-|-13-13-13-13-13-13-13-13--||
|-x-x-x-x-x-x-x-x-|--x--x--x--x--x--x--x--x--||
|-7-7-7-7-7-7-7-7-|-11-11-11-11-11-11-11-11-o||
|-----------------|--------------------------||


  F#5                       G#5       A5
  E E E E E E E E   E E E E E E E E   E E E E E E E E   E E E E E E E E
|-----------------|-----------------|-----------------|------------------|
|-----------------|-----------------|-----------------|------------------|
|-----------------|-----------------|-----------------|------------------|
|-4-4-4-4-4-4-4-4-|-4-4-4-4-6-6-6-6-|-7-7-7-7-7-7-7-7-|-7-7-7-7-7-x-x-x--|
|-4-4-4-4-4-4-4-4-|-4-4-4-4-6-6-6-6-|-7-7-7-7-7-7-7-7-|-7-7-7-7-7-x-x-x--|
|-2-2-2-2-2-2-2-2-|-2-2-2-2-4-4-4-4-|-5-5-5-5-5-5-5-5-|-5-5-5-5-5-x-x-x--|


  F#5                       G#5       A5                B5
  E E E E E E E E   E E E E E E E E   E E E E E E E E   E E E E E E E E
|-----------------|-----------------|-----------------|------------------|
|-----------------|-----------------|-----------------|------------------|
|-----------------|-----------------|-----------------|------------------|
|-4-4-4-4-4-4-4-4-|-4-4-4-4-6-6-6-6-|-7-7-7-7-7-7-7-7-|-9-9-9-9-9-9-9-9--|
|-4-4-4-4-4-4-4-4-|-4-4-4-4-6-6-6-6-|-7-7-7-7-7-7-7-7-|-9-9-9-9-9-9-9-9--|
|-2-2-2-2-2-2-2-2-|-2-2-2-2-4-4-4-4-|-5-5-5-5-5-5-5-5-|-7-7-7-7-7-7-7-7--|


 Outro
  C#5    B5C#5    B5  C#5    B5C#5
   E  Q  E  E  Q  E    E  Q  E  Q  Q    W
|-------------------|-----------------|------*|
|-------------------|-----------------|------*|
|-------------------|-----------------|------*|
|-11-11--9-11-11--9-|-11-11--9-11-----|------*|
|-11-11--9-11-11--9-|-11-11--9-11-----|------*|
|--9--9--7--9--9--7-|--9--9--7--9-----|------*|


Duration Legend
---------------
W - whole; H - half; Q - quarter; E - 8th; S - 16th; T - 32nd; X - 64th; a - acciaccatura
+ - note tied to previous; . - note dotted; .. - note double dotted
Uncapitalized letters represent notes that are staccato (1/2 duration)
Irregular groupings are notated above the duration line
Duration letters will always appear directly above the note/fret number it represents the
duration for.  Duration letters with no fret number below them represent rests.  Multi-
bar rests are notated in the form Wxn, where n is the number of bars to rest for.  Low
melody durations appear below the staff

Tablature Legend
----------------
 h   - hammer-on
 p   - pull-off
 b   - bend
 pb  - pre-bend
 r   - bend release (if no number after the r, then release immediately)
 /\  - slide into or out of (from/to "nowhere")
 s   - legato slide
 S   - shift slide
<n>  - natural harmonic
[n]  - artificial harmonic
n(n) - tapped harmonic
 ~   - vibrato
 tr  - trill
 T   - tap
 TP  - trem. picking
 PM  - palm muting
\n/  - tremolo bar dip; n = amount to dip
 \n  - tremolo bar down
 n/  - tremolo bar up
/n\  - tremolo bar inverted dip
 =   - hold bend; also acts as connecting device for hammers/pulls
 <>  - volume swell (louder/softer)
 x   - on rhythm slash represents muted slash
 o   - on rhythm slash represents single note slash

Misc Legend
-----------
 |  - bar
||  - double bar
||o - repeat start
o|| - repeat end
*|  - double bar (ending)
 :  - bar (freetime)
 $  - Segno
 &  - Coda
Tempo markers - <E/E./Q/Q./H/H.> = BPM(8/16=s8/s16), where s8 = swing 8ths, s16 = swing 16ths
            
Submit corrections

↑ Back to top | Consumed Tabs for Take It On The Chin. Lyrics for acoustic guitar and electric guitar. Tablatures and chords are parodies/interpretations of the original songs. You may use it for private study, scholarship, research or language learning purposes only