» » »

Consumed, On The Take Again Tabs (ver.1)

Artists:  A B C D E F G H I J K L M N O P Q R S T U V W X Y Z # 

On The Take Again Tabs (ver.1)

Consumed Tabs
Rating:
0/5 (0 votes)
On The Take Again lessons Tabs too difficult? Try these video lessons and learn fast
                Verse / chorus :
e|--------------------------------------
B|--------------------------------------
G|--8---------6-------------------------
D|--8----4----6----6--------------------
A|--6----4----4----6--------------------
E|-------2---------4--------------------
   D#    F#   C#   G#

Riff 1 :
   D#     F#       C#        G#
e|-----------------------------------
B|-----------------------------------
G|-----------------------------------
D|-----------------------------------
A|-666--4----------4-------4------4--
E|--------6----4-6-----4-6----4-6----


Riff 2 :
   D#    F#   C#      G#
e|----------------------------
B|----------------------------
G|----------------------------
D|----------8-6---6-----------
A|-666--8-9-----9---9-8-4-6---
E|----------------------------

End on :
e|------
B|------
G|--8/--
D|--8/--
A|--6/--
E|------

Great song !
I really think that is ok, just listen to the song for the rythm and dead notes.
            
Submit corrections

comments powered by Disqus
↑ Back to top | Consumed Tabs for On The Take Again. Lyrics for acoustic guitar and electric guitar. Tablatures and chords are parodies/interpretations of the original songs. You may use it for private study, scholarship, research or language learning purposes only