» » »

Consumed, Not Today Tabs (ver.1)

Artists:  A B C D E F G H I J K L M N O P Q R S T U V W X Y Z # 

Not Today Tabs (ver.1)

Consumed Tabs
 Rating:
4/5 (4 votes)
Not Today lessons Tabs too difficult? Try these video lessons and learn fast
                Consumed - Not Today

Ok this is off Consumeds newest album; Pistols At Dawn
I couldn't find this ANYWHERE on the net so wayhay this is origional. I know a few more tracks so Ill probably tab those as well, keep rockin


Solo soon to come :thumb:

\ = Slide

e |------------------------------------------------------------------|
B |------------------------------------------------------------------|
G |------------------------------------------------------------------|
D |------------------------------------------------------------------|
A |-----0-0-6-0-7-0-9---0-0-0-6-0-7-0-9------------------------------|
E |------------------------------------------------------------------|

e |----------------------------------Only last time--vvv-------------|
B |------------------------------------------------------------------|
G |------------------------------------------------------------------|
D |--------------------------------99-88-66----88-66-----------------|
A |----------6-0-7-0-9-7766-7766------------99-------99-77-----------|
E |------7-7---------------------------------------------------------|

Plays through intro

e |---------|
B |--4-2-0--|
G |---------|
D |---------|
A |---------|
E |---------|


Just before Verse

e |palm muted--------------------------------------------------------|
B |------------------------------------------------------------------|
G |---------4-------Listen to get the pattern------------------------|
D |------6--4-----------its quite fast so its------------------------|
A |------6--2--------difficult to count------------------------------|
E |------4-----------------------------------------------------------|
      Its lonley everyday........
Verse

e |------------------------------------------------------------------|
B |------------------------------------------------------------------|
G |---------4--------------------------------------------------------|
D |-----6---4--4-----------repeat as necassary-----------------------|
A |-----6---2--4-----------------------------------------------------|
E |-----4------2-----------------------------------------------------|
       I think we've heard enough before...


Outro:

e |------------------------------------------------------------------|
B |------------------------------------------------------------------|
G |------------------------------------------------------------------|
D |------------------------------------------------------------------|
A |-9//////-0-0-6-0-7-0-9--0-0-6-0-7-0-9-------6-0-7-0-9-7766-7766---|
E |----------------------------------------7-7-----------------------|

End on:

e |---------|
B |---------|
G |---------|
D |--6///---|
A |--6///---|
E |--4///---|

I cant really get the chorus but meh...
Ive sorta gotten the cool little solo but I want to get it perfect before I tab it
            
Submit corrections

comments powered by Disqus
↑ Back to top | Consumed Tabs for Not Today. Lyrics for acoustic guitar and electric guitar. Tablatures and chords are parodies/interpretations of the original songs. You may use it for private study, scholarship, research or language learning purposes only