» » »

Lead The Way Bass tabs (ver.1)

Artists:  A B C D E F G H I J K L M N O P Q R S T U V W X Y Z # 

Lead The Way Bass tabs (ver.1)

Consumed
Rating:
0/5 (0 votes)

Hard to play? Try these video lessons and learn fast.
                Consumed - Lead The Way
Album - Hit For Six
Tempo - 200
Tuning - Standard

   Wes Wasely       - Bass                                             
G  :----------------|----------------|----------------|----------------|
D  :----------------|----------------|----------------|----------------|
A  :4-4-4-6---6-6---|----------------|4-4-4-6---6-6---|------3---3-3-3-|
E  :--------------4-|--4-4-1---1-1-1-|--------------4-|--4-4-----------|

                                                                       
G  :----------------|----------------|----------------|----------------|
D  :----------------|----------------|----------------|----------------|
A  :4-4-4-6---6-6---|------3---3-3-3-|----------------|----------------|
E  :--------------4-|--4-4-----------|1-1-1-1-1-1-1-1-|3-3-3-3-3-3-3-3-|

                                                                       
G  :----------------|----------------|----------------|----------------|
D  :--------------1-|--1-1-1-1-1-1-1-|----------------|----------------|
A  :----------------|----------------|----------------|----------------|
E  :4-4-4-4-4-4-4---|----------------|1-1-1-1-1-1-1-1-|3-3-3-3-3-3-3-3-|

                                                                       
G  :----------------|----------------|----------------|----------------|
D  :--------------1-|--1-1-1-1-1-1-1-|----------------|----------------|
A  :----------------|----------------|----------------|----------------|
E  :4-4-4-4-4-4-4---|----------------|4-4-4-4-4-4-4-4-|1-1-1-1-1-1-1-1-|

                                                                       
G  :----------------|----------------|----------------|----------------|
D  :----------------|--------1-1-1-1-|----------------|----------------|
A  :3-3-3-3-3-3-3-3-|4-4-4-4---------|----------------|----------------|
E  :----------------|----------------|4-4-4-4-4-4-4-4-|1-1-1-1-1-1-1-1-|

                                                                       
G  :----------------|----------------|----------------|----------------|
D  :----------------|--------1-1-1-1-|----------------|----------------|
A  :3-3-3-3-3-3-3-3-|4-4-4-4---------|----------------|----------------|
E  :----------------|----------------|4-4-4-4-4-4-4-4-|1-1-1-1-1-1-1-1-|

                                                                       
G  :----------------|----------------|----------------|----------------|
D  :----------------|1-1-1-1-1-1-1-1-|----------------|----------------|
A  :3-3-3-3-3-3-3-3-|----------------|----------------|----------------|
E  :----------------|----------------|4-4-4-4-4-4-4-4-|1-1-1-1-1-1-1-1-|

                                                                       
G  :----------------|----------------|----------------|----------------|
D  :----------------|1-1-1-1-1-1-1-1-|----------------|----------------|
A  :3-3-3-3-3-3-3-3-|----------------|----------------|----------------|
E  :----------------|----------------|4-4-4-4-4-4-4-4-|1-1-1-1-1-1-1-1-|

                                                                       
G  :----------------|----------------|----------------|----------------|
D  :--------------1-|--1-1-1-1-1-1-1-|----------------|----------------|
A  :3-3-3-3-3-3-3---|----------------|----------------|----------------|
E  :----------------|----------------|4-4-4-4-4-4-4-4-|1-1-1-1-1-1-1-1-|

                                                                       
G  :----------------|----------------|----------------|----------------|
D  :----------------|*-1-*-1-*-1-*---|----------------|----------------|
A  :3-3-3-3-3-3-3-3-|----------------|4-4-4-6---6-6---|----------------|
E  :----------------|----------------|--------------4-|--4-4-1---1-1-1-|

                                                                       
G  :----------------|----------------|----------------|----------------|
D  :----------------|----------------|----------------|----------------|
A  :4-4-4-6---6-6---|------3---3-3-3-|4-4-4-6---6-6---|------3---3-3-3-|
E  :--------------4-|--4-4-----------|--------------4-|--4-4-----------|

                                                                       
G  :----------------|----------------|----------------|----------------|
D  :----------------|----------------|--------------1-|--1-1-1-1-1-1-1-|
A  :----------------|----------------|----------------|----------------|
E  :1-1-1-1-1-1-1-1-|3-3-3-3-3-3-3-3-|4-4-4-4-4-4-4---|----------------|

                                                                       
G  :----------------|----------------|----------------|----------------|
D  :----------------|----------------|--------------1-|--1-1-1-1-1-1-1-|
A  :----------------|----------------|----------------|----------------|
E  :1-1-1-1-1-1-1-1-|3-3-3-3-3-3-3-3-|4-4-4-4-4-4-4---|----------------|

                                                                       
G  :----------------|----------------|----------------|----------------|
D  :----------------|----------------|----------------|--------1-1-1-1-|
A  :----------------|----------------|3-3-3-3-3-3-3-3-|4-4-4-4---------|
E  :4-4-4-4-4-4-4-4-|1-1-1-1-1-1-1-1-|----------------|----------------|

                                                                       
G  :----------------|----------------|----------------|----------------|
D  :----------------|----------------|----------------|--------1-1-1-1-|
A  :----------------|----------------|3-3-3-3-3-3-3-3-|4-4-4-4---------|
E  :4-4-4-4-4-4-4-4-|1-1-1-1-1-1-1-1-|----------------|----------------|

                                                                       
G  :----------------|----------------|----------------|----------------|
D  :----------------|----------------|----------------|----------------|
A  :4-4-4-6---6-6---|----------------|4-4-4-6---6-6---|------3---3-3-3-|
E  :--------------4-|--4-4-1---1-1-1-|--------------4-|--4-4-----------|

                                                                       
G  :----------------|----------------|----------------|----------------|
D  :----------------|----------------|----------------|----------------|
A  :4-4-4-6---6-6---|------3---3-3-3-|----------------|----------------|
E  :--------------4-|--4-4-----------|1-------1---1-3-|--------3---3---|

                                                                       
G  :----------------|----------------|----------------|----------------|
D  :----------------|----------------|----------------|----------------|
A  :--------------6-|--------6-------|----------------|----------------|
E  :4-------4-------|----------------|1-------1---1-3-|--------3---3---|

                                                                       
G  :----------------|----------------|----------------|----------------|
D  :----------------|----------------|----------------|----------------|
A  :--------------6-|--------6-------|----------------|----------------|
E  :4-------4-------|----------------|1-1-1-1-1-1-1-3-|--3-3-3-3-3-3-3-|

                                                                       
G  :----------------|----------------|----------------|----------------|
D  :----------------|----------------|----------------|----------------|
A  :--------------6-|6-6-6-6-6-6-6-6-|----------------|----------------|
E  :4-4-4-4-4-4-4---|----------------|1-1-1-1-1-1-1-3-|--3-3-3-3-3-3-3-|

                                                                       
G  :----------------|----------------|----------------|----------------|
D  :----------------|----------------|----------------|----------------|
A  :--------------6-|6-6-6-6-6-6-6-6-|----------------|----------------|
E  :4-4-4-4-4-4-4---|----------------|1-1-1-1-1-1-1-3-|--3-3-3-3-3-3-3-|

                                                                       
G  :----------------|----------------|----------------|----------------|
D  :----------------|----------------|----------------|----------------|
A  :--------------6-|6-6-6-6-6-6-6-6-|----------------|----------------|
E  :4-4-4-4-4-4-4---|----------------|1-1-1-1-1-1-1-3-|--3-3-3-3-3-3-3-|

                                                                        
G  :----------------|-----------------|----------------|----------------|
D  :----------------|-----------6-8---|----------------|----------------|
A  :--------------6-|--8---10---------|----------------|----------------|
E  :4-4-4-4-4-4-4---|-----------------|4-4-4-4-4-4-4-4-|1-1-1-1-1-1-1-1-|

                                                                       
G  :----------------|----------------|----------------|----------------|
D  :--------------1-|--1-1-1-1-1-1-1-|----------------|----------------|
A  :3-3-3-3-3-3-3---|----------------|----------------|----------------|
E  :----------------|----------------|4-4-4-4-4-4-4-4-|1-1-1-1-1-1-1-1-|

                                                                       
G  :----------------|----------------|----------------|----------------|
D  :--------------1-|--1-1-1-1-1-1-1-|----------------|----------------|
A  :3-3-3-3-3-3-3---|----------------|----------------|----------------|
E  :----------------|----------------|4-4-4-4-4-4-4-4-|1-1-1-1-1-1-1-1-|

                                                                       
G  :----------------|----------------|----------------|----------------|
D  :--------------1-|--1-1-1-1-1-1-1-|----------------|----------------|
A  :3-3-3-3-3-3-3---|----------------|----------------|----------------|
E  :----------------|----------------|4-4-4-4-4-4-4-4-|1-1-1-1-1-1-1-1-|

                                                                       
G  :----------------|----------------|----------------|----------------|
D  :--------------1-|--1-1-1-1-1-1-1-|----------------|----------------|
A  :3-3-3-3-3-3-3---|----------------|----------------|----------------|
E  :----------------|----------------|4-4-4-4-4-4-4-4-|1-1-1-1-1-1-1-1-|

                                                                       
G  :----------------|----------------|----------------|----------------|
D  :--------------1-|--1-1-1-1-1-1-1-|----------------|----------------|
A  :3-3-3-3-3-3-3---|----------------|----------------|----------------|
E  :----------------|----------------|4-4-4-4-4-4-4-4-|1-1-1-1-1-1-1-1-|

                                                                       
G  :----------------|----------------|----------------|----------------|
D  :--------------1-|--1-1-1-1-1-1-1-|----------------|----------------|
A  :3-3-3-3-3-3-3---|----------------|----------------|----------------|
E  :----------------|----------------|1-1-1-1-1-1-1-3-|--3-3-3-3-3-3-3-|

                                                                       
G  :----------------|----------------|
D  :--------------1-|----------------|
A  :----------------|----------------|
E  :4-4-4-4-4-4-4---|----------------|
            
Hard to play? Try these video lessons and learn fast. | Correct




comments powered by Disqus
↑ Back to top | Tablatures and chords are parodies/interpretations of the original songs. You may use it for private study, scholarship, research or language learning purposes only