>
 >
Lead The Way

Lead The Way Guitar Tabs

Consumed - Lead The Way chords, tabs, tablatures, lyrics

Guitar lessons | Add/correct | Request | Top 50 tabs Artists:  A B C D E F G H I J K L M N O P Q R S T U V W X Y Z 0-9

Lead The Way Guitar Tabs – Consumed

CD, Sheet music, Poster

Do you like Lead The Way? Share with your friends now
Bass TabsTabs
Consumed - Lead The Way
Album - Hit For Six
Tempo - 200
Tuning - Standard


   Mike Ford        - Lead Guitar                                      
E  :----------------|----------------|----------------|----------------|
B  :----------------|----------------|----------------|----------------|
G  :----------------|----------------|----------------|----------------|
D  :6-6-6-8---8-8---|----------------|6-6-6-8---8-8---|------5---5-5-5-|
A  :4-4-4-6---6-6-6-|--6-6-3---3-3-3-|4-4-4-6---6-6-6-|--6-6-3---3-3-3-|
E  :--------------4-|--4-4-1---1-1-1-|--------------4-|--4-4-----------|

   Steve Ford       - Rhythm Guitar                                    
E  :----------------|----------------|----------------|----------------|
B  :----------------|----------------|----------------|----------------|
G  :----------------|----------------|----------------|----------------|
D  :6-6-6-8---8-8---|----------------|6-6-6-8---8-8---|------5---5-5-5-|
A  :4-4-4-6---6-6-6-|--6-6-3---3-3-3-|4-4-4-6---6-6-6-|--6-6-3---3-3-3-|
E  :--------------4-|--4-4-1---1-1-1-|--------------4-|--4-4-----------|

============================================================================


E  :----------------|----------------|----------------|----------------|
B  :----------------|----------------|----------------|----------------|
G  :----------------|----------------|----------------|----------------|
D  :6-6-6-8---8-8---|------5---5-5-5-|----------------|----------------|
A  :4-4-4-6---6-6-6-|--6-6-3---3-3-3-|3-3-3-3-3-3-3-3-|5-5-5-5-5-5-5-5-|
E  :--------------4-|--4-4-----------|1-1-1-1-1-1-1-1-|3-3-3-3-3-3-3-3-|


E  :----------------|----------------|----------------|----------------|
B  :----------------|----------------|----------------|----------------|
G  :----------------|----------------|----------------|----------------|
D  :6-6-6-8---8-8---|------5---5-5-5-|----------------|----------------|
A  :4-4-4-6---6-6-6-|--6-6-3---3-3-3-|3-3-3-3-3-3-3-3-|5-5-5-5-5-5-5-5-|
E  :--------------4-|--4-4-----------|1-1-1-1-1-1-1-1-|3-3-3-3-3-3-3-3-|

============================================================================

                           Ring--|
E  :----------------|------4-3---*---|----------------|----------------|
B  :----------------|----------4-----|----------------|----------------|
G  :----------------|------------3---|----------------|----------------|
D  :--------------8-|--8-8-----------|----------------|----------------|
A  :6-6-6-6-6-6-6-6-|--6-6-----------|3-3-3-3-3-3-3-3-|5-5-5-5-5-5-5-5-|
E  :4-4-4-4-4-4-4---|----------------|1-1-1-1-1-1-1-1-|3-3-3-3-3-3-3-3-|


E  :----------------|----------------|----------------|----------------|
B  :----------------|----------------|----------------|----------------|
G  :----------------|----------------|----------------|----------------|
D  :--------------8-|--8-8-8-8-8-8-8-|----------------|----------------|
A  :6-6-6-6-6-6-6-6-|--6-6-6-6-6-6-6-|3-3-3-3-3-3-3-3-|5-5-5-5-5-5-5-5-|
E  :4-4-4-4-4-4-4---|----------------|1-1-1-1-1-1-1-1-|3-3-3-3-3-3-3-3-|

============================================================================

                           Ring--|
E  :----------------|------4-3---*---|----------------|----------------|
B  :----------------|----------4-----|4-4-3-3-4-4-----|4-4-3-3-4-4-----|
G  :----------------|------------3---|------------3-3-|------------3-3-|
D  :--------------8-|--8-8-----------|----------------|----------------|
A  :6-6-6-6-6-6-6-6-|--6-6-----------|----------------|----------------|
E  :4-4-4-4-4-4-4---|----------------|----------------|----------------|


E  :----------------|----------------|----------------|----------------|
B  :----------------|----------------|----------------|----------------|
G  :----------------|----------------|----------------|----------------|
D  :--------------8-|--8-8-8-8-8-8-8-|----------------|----------------|
A  :6-6-6-6-6-6-6-6-|--6-6-6-6-6-6-6-|6-6-6-6-6-6-6-6-|3-3-3-3-3-3-3-3-|
E  :4-4-4-4-4-4-4---|----------------|4-4-4-4-4-4-4-4-|1-1-1-1-1-1-1-1-|

============================================================================


E  :----------------|------------1-1-|----------------|----------------|
B  :3-3-1-1-3-3-----|1-1-----3-3-----|4-4-3-3-4-4-----|4-4-3-3-4-4-----|
G  :------------3-3-|----3-3---------|------------3-3-|------------3-3-|
D  :----------------|----------------|----------------|----------------|
A  :----------------|----------------|----------------|----------------|
E  :----------------|----------------|----------------|----------------|


E  :----------------|----------------|----------------|----------------|
B  :----------------|----------------|----------------|----------------|
G  :----------------|----------------|----------------|----------------|
D  :5-5-5-5-5-5-5-5-|6-6-6-6-8-8-8-8-|----------------|----------------|
A  :3-3-3-3-3-3-3-3-|4-4-4-4-6-6-6-6-|6-6-6-6-6-6-6-6-|3-3-3-3-3-3-3-3-|
E  :----------------|----------------|4-4-4-4-4-4-4-4-|1-1-1-1-1-1-1-1-|

============================================================================

                                      |-P.M.----------------------------                                 
E  :----------------|------------1-1-|----------------|----------------|
B  :3-3-1-1-3-3-----|1-1-----3-3-----|----------------|----------------|
G  :------------3-3-|----3-3---------|----------------|----------------|
D  :----------------|----------------|----------------|----------------|
A  :----------------|----------------|6-6-6-6-6-6-6-6-|3-3-3-3-3-3-3-3-|
E  :----------------|----------------|4-4-4-4-4-4-4-4-|1-1-1-1-1-1-1-1-|

   Steve Ford       - Rhythm Guitar   P.M.------------------------------
E  :----------------|----------------|----------------|----------------|
B  :----------------|----------------|----------------|----------------|
G  :----------------|----------------|----------------|----------------|
D  :5-5-5-5-5-5-5-5-|6-6-6-6-8-8-8-8-|----------------|----------------|
A  :3-3-3-3-3-3-3-3-|4-4-4-4-6-6-6-6-|6-6-6-6-6-6-6-6-|3-3-3-3-3-3-3-3-|
E  :----------------|----------------|4-4-4-4-4-4-4-4-|1-1-1-1-1-1-1-1-|

============================================================================

    |-P.M.-------------------------------------------------------------
E  :----------------|----------------|----------------|----------------|
B  :----------------|----------------|----------------|----------------|
G  :----------------|----------------|----------------|----------------|
D  :5-5-5-5-5-5-5-5-|8-8-8-8-8-8-8-8-|----------------|----------------|
A  :3-3-3-3-3-3-3-3-|6-6-6-6-6-6-6-6-|6-6-6-6-6-6-6-6-|3-3-3-3-3-3-3-3-|
E  :----------------|----------------|4-4-4-4-4-4-4-4-|1-1-1-1-1-1-1-1-|

    |-P.M.-------------------------------------------------------------
E  :----------------|----------------|----------------|----------------|
B  :----------------|----------------|----------------|----------------|
G  :----------------|----------------|----------------|----------------|
D  :5-5-5-5-5-5-5-5-|8-8-8-8-8-8-8-8-|----------------|----------------|
A  :3-3-3-3-3-3-3-3-|6-6-6-6-6-6-6-6-|6-6-6-6-6-6-6-6-|3-3-3-3-3-3-3-3-|
E  :----------------|----------------|4-4-4-4-4-4-4-4-|1-1-1-1-1-1-1-1-|

============================================================================

    |-P.M.--------------------------|
E  :----------------|----------------|----------------|----------------|
B  :----------------|----------------|----------------|----------------|
G  :----------------|----------------|----------------|----------------|
D  :5-5-5-5-5-5-5-5-|8-8-8-8-8-8-8-8-|----------------|----------------|
A  :3-3-3-3-3-3-3-3-|6-6-6-6-6-6-6-6-|6-6-6-6-6-6-6-6-|3-3-3-3-3-3-3-3-|
E  :----------------|----------------|4-4-4-4-4-4-4-4-|1-1-1-1-1-1-1-1-|

    |-P.M.--------------------------|
E  :----------------|----------------|----------------|----------------|
B  :----------------|----------------|----------------|----------------|
G  :----------------|----------------|----------------|----------------|
D  :5-5-5-5-5-5-5-5-|8-8-8-8-8-8-8-8-|----------------|----------------|
A  :3-3-3-3-3-3-3-3-|6-6-6-6-6-6-6-6-|6-6-6-6-6-6-6-6-|3-3-3-3-3-3-3-3-|
E  :----------------|----------------|4-4-4-4-4-4-4-4-|1-1-1-1-1-1-1-1-|

============================================================================


E  :----------------|----------------|----------------|----------------|
B  :----------------|----------------|----------------|----------------|
G  :----------------|----------------|----------------|----------------|
D  :5-5-5-5-5-5-5-8-|--8-8-8-8-8-8-8-|----------------|----------------|
A  :3-3-3-3-3-3-3-6-|--6-6-6-6-6-6-6-|6-6-6-6-6-6-6-6-|3-3-3-3-3-3-3-3-|
E  :----------------|----------------|4-4-4-4-4-4-4-4-|1-1-1-1-1-1-1-1-|


E  :----------------|----------------|----------------|----------------|
B  :----------------|----------------|----------------|----------------|
G  :----------------|----------------|----------------|----------------|
D  :5-5-5-5-5-5-5-8-|--8-8-8-8-8-8-8-|----------------|----------------|
A  :3-3-3-3-3-3-3-6-|--6-6-6-6-6-6-6-|6-6-6-6-6-6-6-6-|3-3-3-3-3-3-3-3-|
E  :----------------|----------------|4-4-4-4-4-4-4-4-|1-1-1-1-1-1-1-1-|

============================================================================


E  :----------------|----------------|----------------|----------------|
B  :----------------|----------------|----------------|----------------|
G  :----------------|----------------|----------------|----------------|
D  :5-5-5-5-5-5-5-5-|*-8-*-8-*-8-*---|6-6-6-8---8-8---|----------------|
A  :3-3-3-3-3-3-3-3-|*-6-*-6-*-6-*---|4-4-4-6---6-6-6-|--6-6-3---3-3-3-|
E  :----------------|----------------|--------------4-|--4-4-1---1-1-1-|


E  :----------------|----------------|----------------|----------------|
B  :----------------|----------------|----------------|----------------|
G  :----------------|----------------|----------------|----------------|
D  :5-5-5-5-5-5-5-5-|*-8-*-8-*-8-*---|6-6-6-8---8-8---|----------------|
A  :3-3-3-3-3-3-3-3-|*-6-*-6-*-6-*---|4-4-4-6---6-6-6-|--6-6-3---3-3-3-|
E  :----------------|----------------|--------------4-|--4-4-1---1-1-1-|

============================================================================


E  :----------------|----------------|----------------|----------------|
B  :----------------|----------------|----------------|----------------|
G  :----------------|----------------|----------------|----------------|
D  :6-6-6-8---8-8---|------5---5-5-5-|6-6-6-8---8-8---|------5---5-5-5-|
A  :4-4-4-6---6-6-6-|--6-6-3---3-3-3-|4-4-4-6---6-6-6-|--6-6-3---3-3-3-|
E  :--------------4-|--4-4-----------|--------------4-|--4-4-----------|


E  :----------------|----------------|----------------|----------------|
B  :----------------|----------------|----------------|----------------|
G  :----------------|----------------|----------------|----------------|
D  :6-6-6-8---8-8---|------5---5-5-5-|6-6-6-8---8-8---|------5---5-5-5-|
A  :4-4-4-6---6-6-6-|--6-6-3---3-3-3-|4-4-4-6---6-6-6-|--6-6-3---3-3-3-|
E  :--------------4-|--4-4-----------|--------------4-|--4-4-----------|

============================================================================

                                                             Ring--|
E  :----------------|----------------|----------------|------4-3---*---|
B  :----------------|----------------|----------------|----------4-----|
G  :----------------|----------------|----------------|------------3---|
D  :----------------|----------------|--------------8-|--8-8-*---------|
A  :3-3-3-3-3-3-3-3-|5-5-5-5-5-5-5-5-|6-6-6-6-6-6-6-6-|--6-6-*---------|
E  :1-1-1-1-1-1-1-1-|3-3-3-3-3-3-3-3-|4-4-4-4-4-4-4---|----------------|


E  :----------------|----------------|----------------|----------------|
B  :----------------|----------------|----------------|----------------|
G  :----------------|----------------|----------------|----------------|
D  :----------------|----------------|--------------8-|--8-8-8-8-8-8-8-|
A  :3-3-3-3-3-3-3-3-|5-5-5-5-5-5-5-5-|6-6-6-6-6-6-6-6-|--6-6-6-6-6-6-6-|
E  :1-1-1-1-1-1-1-1-|3-3-3-3-3-3-3-3-|4-4-4-4-4-4-4---|----------------|

============================================================================

                                                             Ring--|
E  :----------------|----------------|----------------|------4-3---*---|
B  :----------------|----------------|----------------|----------4-----|
G  :----------------|----------------|----------------|------------3---|
D  :----------------|----------------|--------------8-|--8-8-*---------|
A  :3-3-3-3-3-3-3-3-|5-5-5-5-5-5-5-5-|6-6-6-6-6-6-6-6-|--6-6-*---------|
E  :1-1-1-1-1-1-1-1-|3-3-3-3-3-3-3-3-|4-4-4-4-4-4-4---|----------------|


E  :----------------|----------------|----------------|----------------|
B  :----------------|----------------|----------------|----------------|
G  :----------------|----------------|----------------|----------------|
D  :----------------|----------------|--------------8-|--8-8-8-8-8-8-8-|
A  :3-3-3-3-3-3-3-3-|5-5-5-5-5-5-5-5-|6-6-6-6-6-6-6-6-|--6-6-6-6-6-6-6-|
E  :1-1-1-1-1-1-1-1-|3-3-3-3-3-3-3-3-|4-4-4-4-4-4-4---|----------------|

============================================================================


E  :----------------|----------------|----------------|------------1-1-|
B  :4-4-3-3-4-4-----|4-4-3-3-4-4-----|3-3-1-1-3-3-----|1-1-----3-3-----|
G  :------------3-3-|------------3-3-|------------3-3-|----3-3---------|
D  :----------------|----------------|----------------|----------------|
A  :----------------|----------------|----------------|----------------|
E  :----------------|----------------|----------------|----------------|


E  :----------------|----------------|----------------|----------------|
B  :----------------|----------------|----------------|----------------|
G  :----------------|----------------|----------------|----------------|
D  :----------------|----------------|5-5-5-5-5-5-5-5-|6-6-6-6-8-8-8-8-|
A  :6-6-6-6-6-6-6-6-|3-3-3-3-3-3-3-3-|3-3-3-3-3-3-3-3-|4-4-4-4-6-6-6-6-|
E  :4-4-4-4-4-4-4-4-|1-1-1-1-1-1-1-1-|----------------|----------------|

============================================================================


E  :----------------|----------------|----------------|------------1-1-|
B  :4-4-3-3-4-4-----|4-4-3-3-4-4-----|3-3-1-1-3-3-----|1-1-----3-3-----|
G  :------------3-3-|------------3-3-|------------3-3-|----3-3---------|
D  :----------------|----------------|----------------|----------------|
A  :----------------|----------------|----------------|----------------|
E  :----------------|----------------|----------------|----------------|


E  :----------------|----------------|----------------|----------------|
B  :----------------|----------------|----------------|----------------|
G  :----------------|----------------|----------------|----------------|
D  :----------------|----------------|5-5-5-5-5-5-5-5-|6-6-6-6-8-8-8-8-|
A  :6-6-6-6-6-6-6-6-|3-3-3-3-3-3-3-3-|3-3-3-3-3-3-3-3-|4-4-4-4-6-6-6-6-|
E  :4-4-4-4-4-4-4-4-|1-1-1-1-1-1-1-1-|----------------|----------------|

============================================================================


E  :----------------|----------------|----------------|----------------|
B  :----------------|----------------|----------------|----------------|
G  :----------------|----------------|----------------|----------------|
D  :6-6-6-8---8-8---|----------------|6-6-6-8---8-8---|------5---5-5-5-|
A  :4-4-4-6---6-6-6-|--6-6-3---3-3-3-|4-4-4-6---6-6-6-|--6-6-3---3-3-3-|
E  :--------------4-|--4-4-1---1-1-1-|--------------4-|--4-4-----------|


E  :----------------|----------------|----------------|----------------|
B  :----------------|----------------|----------------|----------------|
G  :----------------|----------------|----------------|----------------|
D  :6-6-6-8---8-8---|----------------|6-6-6-8---8-8---|------5---5-5-5-|
A  :4-4-4-6---6-6-6-|--6-6-3---3-3-3-|4-4-4-6---6-6-6-|--6-6-3---3-3-3-|
E  :--------------4-|--4-4-1---1-1-1-|--------------4-|--4-4-----------|

============================================================================


E  :----------------|----------------|----------------|----------------|
B  :----------------|----------------|----------------|----------------|
G  :----------------|----------------|----------------|----------------|
D  :6-6-6-8---8-8---|------5---5-5-5-|----------------|----------------|
A  :4-4-4-6---6-6-6-|--6-6-3---3-3-3-|3-------3---3-5-|--------5---5---|
E  :--------------4-|--4-4-----------|1-------1---1-3-|--------3---3---|


E  :----------------|----------------|----------------|----------------|
B  :----------------|----------------|----------------|----------------|
G  :----------------|----------------|----------------|----------------|
D  :6-6-6-8---8-8---|------5---5-5-5-|----------------|----------------|
A  :4-4-4-6---6-6-6-|--6-6-3---3-3-3-|3-------3---3-5-|--------5---5---|
E  :--------------4-|--4-4-----------|1-------1---1-3-|--------3---3---|

============================================================================

                           Ring--|
E  :----------------|------4-3---*---|----------------|----------------|
B  :----------------|----------4-----|----------------|1---------------|
G  :----------------|------------3---|----------------|--------------3-|
D  :--------------8-|------*---------|3---------------|----------------|
A  :6-------6-----6-|------*---------|----------------|----------------|
E  :4-------4-------|----------------|----------------|----------------|


E  :----------------|----------------|----------------|----------------|
B  :----------------|----------------|----------------|----------------|
G  :----------------|----------------|----------------|----------------|
D  :--------------8-|--------8-------|----------------|----------------|
A  :6-------6-----6-|--------6-------|3-------3---3-5-|--------5---5---|
E  :4-------4-------|----------------|1-------1---1-3-|--------3---3---|

============================================================================


E  :--------------3-|----------------|----------------|----------------|
B  :1---------------|----------------|----------------|----------------|
G  :----------------|----------------|----------------|----------------|
D  :----------------|----------------|----------------|----------------|
A  :----------------|----------------|3-3-3-3-3-3-3-5-|--5-5-5-5-5-5-5-|
E  :----------------|----------------|1-1-1-1-1-1-1-3-|--3-3-3-3-3-3-3-|


E  :----------------|----------------|----------------|----------------|
B  :----------------|----------------|----------------|----------------|
G  :----------------|----------------|----------------|----------------|
D  :--------------8-|--------8-------|----------------|----------------|
A  :6-------6-----6-|--------6-------|3-3-3-3-3-3-3-5-|--5-5-5-5-5-5-5-|
E  :4-------4-------|----------------|1-1-1-1-1-1-1-3-|--3-3-3-3-3-3-3-|

============================================================================

                           Ring--|
E  :----------------|------4-3---*---|----------------|----------------|
B  :----------------|----------4-----|----------------|1---------------|
G  :----------------|------------3---|----------------|--------------3-|
D  :--------------8-|--8-8-*---------|3---------------|----------------|
A  :6-6-6-6-6-6-6-6-|--6-6-*---------|----------------|----------------|
E  :4-4-4-4-4-4-4---|----------------|----------------|----------------|


E  :----------------|----------------|----------------|----------------|
B  :----------------|----------------|----------------|----------------|
G  :----------------|----------------|----------------|----------------|
D  :--------------8-|--8-8-8-8-8-8-8-|----------------|----------------|
A  :6-6-6-6-6-6-6-6-|--6-6-6-6-6-6-6-|3-3-3-3-3-3-3-5-|--5-5-5-5-5-5-5-|
E  :4-4-4-4-4-4-4---|----------------|1-1-1-1-1-1-1-3-|--3-3-3-3-3-3-3-|

============================================================================


E  :--------------3-|----------------|----------------|----------------|
B  :1---------------|----------------|----------------|1-1-1-1-1-1-1---|
G  :----------------|----------------|----------------|--------------3-|
D  :----------------|----------------|3-3-3-3-3-3-3-3-|----------------|
A  :----------------|----------------|----------------|----------------|
E  :----------------|----------------|----------------|----------------|


E  :----------------|----------------|----------------|----------------|
B  :----------------|----------------|----------------|----------------|
G  :----------------|----------------|----------------|----------------|
D  :--------------8-|8-8-8-8-8-8-8-8-|----------------|----------------|
A  :6-6-6-6-6-6-6-6-|6-6-6-6-6-6-6-6-|3-3-3-3-3-3-3-5-|--5-5-5-5-5-5-5-|
E  :4-4-4-4-4-4-4---|----------------|1-1-1-1-1-1-1-3-|--3-3-3-3-3-3-3-|

============================================================================


E  :--------------3-|--3-3-3-3-3-3-3-|----------------|----------------|
B  :1-1-1-1-1-1-1---|----------------|----------------|1-1-1-1-1-1-1---|
G  :----------------|----------------|----------------|--------------3-|
D  :----------------|----------------|3-3-3-3-3-3-3-3-|----------------|
A  :----------------|----------------|----------------|----------------|
E  :----------------|----------------|----------------|----------------|


E  :----------------|----------------|----------------|----------------|
B  :----------------|----------------|----------------|----------------|
G  :----------------|----------------|----------------|----------------|
D  :--------------8-|8-8-8-8-8-8-8-8-|----------------|----------------|
A  :6-6-6-6-6-6-6-6-|6-6-6-6-6-6-6-6-|3-3-3-3-3-3-3-5-|--5-5-5-5-5-5-5-|
E  :4-4-4-4-4-4-4---|----------------|1-1-1-1-1-1-1-3-|--3-3-3-3-3-3-3-|

============================================================================


E  :--------------3-|--3-3-3-3-3-3-3-|----------------|----------------|
B  :1-1-1-1-1-1-1---|----------------|----------------|----------------|
G  :----------------|----------------|----------------|----------------|
D  :----------------|----------------|----------------|----------------|
A  :----------------|----------------|6-6-6-6-6-6-6-6-|3-3-3-3-3-3-3-3-|
E  :----------------|----------------|4-4-4-4-4-4-4-4-|1-1-1-1-1-1-1-1-|


E  :----------------|----------------|----------------|----------------|
B  :----------------|----------------|----------------|----------------|
G  :----------------|----------------|----------------|----------------|
D  :--------------8-|8-8-8-8-8-8-8-8-|----------------|----------------|
A  :6-6-6-6-6-6-6-6-|6-6-6-6-6-6-6-6-|6-6-6-6-6-6-6-6-|3-3-3-3-3-3-3-3-|
E  :4-4-4-4-4-4-4---|----------------|4-4-4-4-4-4-4-4-|1-1-1-1-1-1-1-1-|

============================================================================


E  :----------------|----------------|----------------|----------------|
B  :----------------|----------------|----------------|----------------|
G  :----------------|----------------|----------------|----------------|
D  :5-5-5-5-5-5-5-8-|--8-8-8-8-8-8-8-|----------------|----------------|
A  :3-3-3-3-3-3-3-6-|--6-6-6-6-6-6-6-|6-6-6-6-6-6-6-6-|3-3-3-3-3-3-3-3-|
E  :----------------|----------------|4-4-4-4-4-4-4-4-|1-1-1-1-1-1-1-1-|


E  :----------------|----------------|----------------|----------------|
B  :----------------|----------------|----------------|----------------|
G  :----------------|----------------|----------------|----------------|
D  :5-5-5-5-5-5-5-8-|--8-8-8-8-8-8-8-|----------------|----------------|
A  :3-3-3-3-3-3-3-6-|--6-6-6-6-6-6-6-|6-6-6-6-6-6-6-6-|3-3-3-3-3-3-3-3-|
E  :----------------|----------------|4-4-4-4-4-4-4-4-|1-1-1-1-1-1-1-1-|

============================================================================


E  :----------------|----------------|----------------|----------------|
B  :----------------|----------------|----------------|----------------|
G  :----------------|----------------|----------------|----------------|
D  :5-5-5-5-5-5-5-8-|--8-8-8-8-8-8-8-|----------------|----------------|
A  :3-3-3-3-3-3-3-6-|--6-6-6-6-6-6-6-|6-6-6-6-6-6-6-3-|--3-3-3-3-3-3-3-|
E  :----------------|----------------|4-4-4-4-4-4-4-1-|--1-1-1-1-1-1-1-|


E  :----------------|----------------|----------------|----------------|
B  :----------------|----------------|----------------|----------------|
G  :----------------|----------------|----------------|----------------|
D  :5-5-5-5-5-5-5-8-|--8-8-8-8-8-8-8-|----------------|----------------|
A  :3-3-3-3-3-3-3-6-|--6-6-6-6-6-6-6-|6-6-6-6-6-6-6-3-|--3-3-3-3-3-3-3-|
E  :----------------|----------------|4-4-4-4-4-4-4-1-|--1-1-1-1-1-1-1-|

============================================================================


E  :----------------|----------------|----------------|----------------|
B  :----------------|----------------|----------------|----------------|
G  :----------------|----------------|----------------|----------------|
D  :5-5-5-5-5-5-5-8-|--8-8-8-8-8-8-8-|----------------|----------------|
A  :3-3-3-3-3-3-3-6-|--6-6-6-6-6-6-6-|6-6-6-6-6-6-6-3-|--3-3-3-3-3-3-3-|
E  :----------------|----------------|4-4-4-4-4-4-4-1-|--1-1-1-1-1-1-1-|


E  :----------------|----------------|----------------|----------------|
B  :----------------|----------------|----------------|----------------|
G  :----------------|----------------|----------------|----------------|
D  :5-5-5-5-5-5-5-8-|--8-8-8-8-8-8-8-|----------------|----------------|
A  :3-3-3-3-3-3-3-6-|--6-6-6-6-6-6-6-|6-6-6-6-6-6-6-3-|--3-3-3-3-3-3-3-|
E  :----------------|----------------|4-4-4-4-4-4-4-1-|--1-1-1-1-1-1-1-|

============================================================================


E  :----------------|----------------|----------------|----------------|
B  :----------------|----------------|----------------|----------------|
G  :----------------|----------------|----------------|----------------|
D  :5-5-5-5-5-5-5-8-|--8-8-8-8-8-8-8-|----------------|----------------|
A  :3-3-3-3-3-3-3-6-|--6-6-6-6-6-6-6-|6-6-6-6-6-6-6-6-|3-3-3-3-3-3-3-3-|
E  :----------------|----------------|4-4-4-4-4-4-4-4-|1-1-1-1-1-1-1-1-|


E  :----------------|----------------|----------------|----------------|
B  :----------------|----------------|----------------|----------------|
G  :----------------|----------------|----------------|----------------|
D  :5-5-5-5-5-5-5-8-|--8-8-8-8-8-8-8-|----------------|----------------|
A  :3-3-3-3-3-3-3-6-|--6-6-6-6-6-6-6-|6-6-6-6-6-6-6-6-|3-3-3-3-3-3-3-3-|
E  :----------------|----------------|4-4-4-4-4-4-4-4-|1-1-1-1-1-1-1-1-|

============================================================================


E  :----------------|----------------|----------------|----------------|
B  :----------------|----------------|----------------|----------------|
G  :----------------|----------------|----------------|----------------|
D  :5-5-5-5-5-5-5-8-|--8-8-8-8-8-8-8-|----------------|----------------|
A  :3-3-3-3-3-3-3-6-|--6-6-6-6-6-6-6-|6-6-6-6-6-6-6-6-|3-3-3-3-3-3-3-3-|
E  :----------------|----------------|4-4-4-4-4-4-4-4-|1-1-1-1-1-1-1-1-|


E  :----------------|----------------|----------------|----------------|
B  :----------------|----------------|----------------|----------------|
G  :----------------|----------------|----------------|----------------|
D  :5-5-5-5-5-5-5-8-|--8-8-8-8-8-8-8-|----------------|----------------|
A  :3-3-3-3-3-3-3-6-|--6-6-6-6-6-6-6-|6-6-6-6-6-6-6-6-|3-3-3-3-3-3-3-3-|
E  :----------------|----------------|4-4-4-4-4-4-4-4-|1-1-1-1-1-1-1-1-|

============================================================================


E  :----------------|----------------|----------------|----------------|
B  :----------------|----------------|----------------|----------------|
G  :----------------|----------------|----------------|----------------|
D  :5-5-5-5-5-5-5-8-|--8-8-8-8-8-8-8-|----------------|----------------|
A  :3-3-3-3-3-3-3-6-|--6-6-6-6-6-6-6-|3-3-3-3-3-3-3-5-|--5-5-5-5-5-5-5-|
E  :----------------|----------------|1-1-1-1-1-1-1-3-|--3-3-3-3-3-3-3-|


E  :----------------|----------------|----------------|----------------|
B  :----------------|----------------|----------------|----------------|
G  :----------------|----------------|----------------|----------------|
D  :5-5-5-5-5-5-5-8-|--8-8-8-8-8-8-8-|----------------|----------------|
A  :3-3-3-3-3-3-3-6-|--6-6-6-6-6-6-6-|3-3-3-3-3-3-3-5-|--5-5-5-5-5-5-5-|
E  :----------------|----------------|1-1-1-1-1-1-1-3-|--3-3-3-3-3-3-3-|

============================================================================


            |P.M.|
E  :----------------|----------------|
B  :----------------|----------------|
G  :----------------|----------------|
D  :--------------8-|----------------|
A  :6-6-6-6-6-6-6-6-|----------------|
E  :4-4-4-4-4-4-4---|----------------|

            |P.M.|
E  :----------------|----------------|
B  :----------------|----------------|
G  :----------------|----------------|
D  :--------------8-|----------------|
A  :6-6-6-6-6-6-6-6-|----------------|
E  :4-4-4-4-4-4-4---|----------------|





Comments


Popular Consumed tabs & chords
Heavy Metal Winner Bass Tabs
Lead The Way Bass Tabs
Out On Your Own Bass Tabs
Brutal Tooth Tabs
Bye Bye Fat Man Tabs
Dear James Tabs
On The Take Again Tabs
Start Living Tabs
Take It On The Chin Tabs
Wake Up With A Smile 1 Tabs


Song lyrics



↑ Back to top | Tablatures and chords are parodies/interpretations of the original songs. You may use it for private study, scholarship, research or language learning purposes only
© 2014 AZChords.com Contact us | Privacy policy | DMCA | Add/correct tabs | Request tabs | Top 50 tabs