» » »

Heavy Metal Winner Tabs (ver.2)

Artists:  A B C D E F G H I J K L M N O P Q R S T U V W X Y Z # 

Heavy Metal Winner Tabs (ver.2)

Consumed
Rating:
0/5 (0 votes)

Tabs too difficult? Try these video lessons and learn fast.
                This is a cool song you may recognise from the playlist of thps2. No one has tabbed this on any site that i have found so i thought i would do it. Here goes...
 
INTRO PART 1

E------------------------------------------------------
B------------------------------------------------------
G--6666-5555-4444-3333---------9999-8888-7777-6666-----
D--6666-5555-4444-3333--x2-----9999-8888-7777-6666--x2-
A--4444-3333-2222-1111---------7777-6666-5555-4444-----
E------------------------------------------------------



INTRO PART 2 x2

E-------------------------------
B-------------------------------
G-4/5--66666666-----------------
D-4/5--66666666--4/5--44444444--
A-2/3--44444444--4/5--44444444--
E----------------2/3--22222222--

GUITAR 1
RIFF 1 x2

E----------------------
B----------------------
G--66666666------------
D--66666666--44444444--
A--44444444--44444444--
E------------22222222--

GUITAR 2
RIFF 2 x2

E--------------------------------------------
B--------------------------------------------
G--------------------------------------------
D--------------------------------------------
A--11-11-11-11---9-9-9-9---8-8-8-8-----------
E------------------------------------9-9-9-9-

VERSE x2
PALM MUTED

E-----------------------
B-----------------------
G--66666666-------------
D--66666666--44444444---
A--44444444--44444444---
E------------22222222---

PRE-CHORUS x2

E----------------------
B----------------------
G--66666666------------
D--66666666--44444444--
A--44444444--44444444--
E------------22222222--

CHORUS

E----------------------
B----------------------
G--66666666------------
D--66666666--44444444--
A--44444444--44444444--
E------------22222222--

SONG ORDER

INTRO PART 1 x2
INTRO PART 2 x2
RIFF 1&2 (Together) x2
VERSE x2
PRE-CHORUS x2
CHORUS x2
INTRO PART 1(First Half Only) x2
VERSE x2
PRE-CHORUS x2
CHORUS x2
INTRO PART 1 x1
RIFF 2 x4
PRE-CHORUS x4 
INTRO PART 1 (First Half Only) x1

Listen to the song for the strumming and timing its not hard to work out. Good Luck!
            
Tabs too difficult? Try these video lessons and learn fast.


comments powered by Disqus
↑ Back to top | Tablatures and chords are parodies/interpretations of the original songs. You may use it for private study, scholarship, research or language learning purposes only