» » »

Heavy Metal Winner Bass tabs (ver.1)

Artists:  A B C D E F G H I J K L M N O P Q R S T U V W X Y Z # 

Heavy Metal Winner Bass tabs (ver.1)

Consumed
Rating:
4/5 (1 vote)

Hard to play? Try these video lessons and learn fast.
                Intro

1st part                     2nd part
G|--------------------------|-------------------------|
D|--------------------------|-------------------------|
A|-44-33-22-11--44-33-22-11-|-77-66-55-44-77-66-55-44-|
E|--------------------------|-------------------------|
3rd part                           4th part
G|---------------------------|    |---------------------|
D|---------------------------|    |---------------------|
A|2/3-44444444---------------|    |-44444444------------|
E|--------------2/3-22222222-|(x2)|-----------22222222--|(x2)

Verse/pre chorus/chorus
G|---------------------------------|
D|---------------------------------|
A|-4-4-4-4-4-4-4-4-----------------|
E|-----------------2-2-2-2-2-2-2-2-|

Interlude
G|----------------------------------------|
D|----------------------------------------|
A|-11-11-11-11--9-9-9-9--8-8-8-8----------|
E|--------------------------------9-9-9-9-|

Order
The whole intro
verse......... x2
pre chorus.... x2
chorus........ x2
intro pt 1.... x1/2
verse......... x2
pre chorus.... x2
chorus........ x2
intro pt 1.... x1
Interlude..... x4
chorus........ x4
intro pt 1.... x1/2
            
Hard to play? Try these video lessons and learn fast. | Correct




comments powered by Disqus
↑ Back to top | Tablatures and chords are parodies/interpretations of the original songs. You may use it for private study, scholarship, research or language learning purposes only