» » »

Dear James Tabs (ver.2)

Artists:  A B C D E F G H I J K L M N O P Q R S T U V W X Y Z # 

Dear James Tabs (ver.2)

Consumed
Rating:
0/5 (0 votes)

Hard to play? Try these video lessons and learn fast.
                DEAR JAMES
                             As recorded by Consumed
                    (From the 2001 Album LIVE FAT, DIE YOUNG)


Gtr I (E A D G B E) - 'Steve'
Gtr II (E A D G B E) - 'Mike'

   Intro
    Q=185
    Gb5               F5                C5
   4/4
    Gtr I
    E E E E E E E E   E E E E E E E E   E E E E E E E E   E E E E E E E E  4x
||------------------|-----------------|-----------------|------------------||
||o-----------------|-6-6-6-6-6-6-6-6-|-----------------|-----------------o||
||------------------|-5-5-5-5-5-5-5-5-|-5-5-5-5-5-5-5-5-|-5-5-5-5-5-5-5-5--||
||--6-6-6-6-6-6-6-6-|-3-3-3-3-3-3-3-3-|-5-5-5-5-5-5-5-5-|-5-5-5-5-5-5-5-5--||
||o-6-6-6-6-6-6-6-6-|-----------------|-3-3-3-3-3-3-3-3-|-3-3-3-3-3-3-3-3-o||
||--4-4-4-4-4-4-4-4-|-----------------|-----------------|------------------||


   Verse
    Gb5                                 F#5               E5
    PM------------------------------------------------------------------|
    E E E E E E E E   E E E E E E E E   E E E E E E E E   E E E E E E E E
||------------------|-----------------|-----------------|------------------||
||o-----------------|-----------------|-----------------|-----------------o||
||------------------|-----------------|-----------------|------------------||
||--6-6-6-6-6-6-6-6-|-6-6-6-6-6-6-6-6-|-3-3-3-3-3-3-3-3-|-2-2-2-2-2-2-2-2--||
||o-6-6-6-6-6-6-6-6-|-6-6-6-6-6-6-6-6-|-3-3-3-3-3-3-3-3-|-2-2-2-2-2-2-2-2-o||
||--4-4-4-4-4-4-4-4-|-4-4-4-4-4-4-4-4-|-1-1-1-1-1-1-1-1-|-0-0-0-0-0-0-0-0--||


  Gb5               Fb                C#5
  E E E E E E E E   E E E E E E E E   E E E E E E E E   E E E E E E E E
|-----------------|-----------------|-----------------|------------------|
|-----------------|-----------------|-----------------|------------------|
|-----------------|-----------------|-6-6-6-6-6-6-6-6-|-6-6-6-6-6-6-6-6--|
|-6-6-6-6-6-6-6-6-|-3-3-3-3-3-3-3-3-|-6-6-6-6-6-6-6-6-|-6-6-6-6-6-6-6-6--|
|-6-6-6-6-6-6-6-6-|-3-3-3-3-3-3-3-3-|-4-4-4-4-4-4-4-4-|-4-4-4-4-4-4-4-4--|
|-4-4-4-4-4-4-4-4-|-1-1-1-1-1-1-1-1-|-----------------|------------------|


  Gb5               E#5               C#5
  E E E E E E E E   E E E E E E E E   E E E E E E E E   E E E E E E E E
|-----------------|-----------------|-----------------|------------------|
|-----------------|-----------------|-----------------|------------------|
|-----------------|-8-8-8-8-8-8-8-8-|-6-6-6-6-6-6-6-6-|-6-6-6-6-6-6-6-6--|
|-6-6-6-6-6-6-6-6-|-8-8-8-8-8-8-8-8-|-6-6-6-6-6-6-6-6-|-6-6-6-6-6-6-6-6--|
|-6-6-6-6-6-6-6-6-|-6-6-6-6-6-6-6-6-|-4-4-4-4-4-4-4-4-|-4-4-4-4-4-4-4-4--|
|-4-4-4-4-4-4-4-4-|-----------------|-----------------|------------------|


   Verse 2
    Gb5                                 F5                E5
    PM------------------------------------------------------------------|
    E E E E E E E E   E E E E E E E E   E E E E E E E E   E E E E E E E E
||------------------|-----------------|-----------------|------------------||
||o-----------------|-----------------|-----------------|-----------------o||
||------------------|-----------------|-----------------|------------------||
||--6-6-6-6-6-6-6-6-|-6-6-6-6-6-6-6-6-|-3-3-3-3-3-3-3-3-|-2-2-2-2-2-2-2-2--||
||o-6-6-6-6-6-6-6-6-|-6-6-6-6-6-6-6-6-|-3-3-3-3-3-3-3-3-|-2-2-2-2-2-2-2-2-o||
||--4-4-4-4-4-4-4-4-|-4-4-4-4-4-4-4-4-|-1-1-1-1-1-1-1-1-|-0-0-0-0-0-0-0-0--||


  Gb5               F5                C#5
  E E E E E E E E   E E E E E E E E   E E E E E E E E   E E E E E E E E
|-----------------|-----------------|-----------------|------------------|
|-----------------|-----------------|-----------------|------------------|
|-----------------|-----------------|-6-6-6-6-6-6-6-6-|-6-6-6-6-6-6-6-6--|
|-6-6-6-6-6-6-6-6-|-3-3-3-3-3-3-3-3-|-6-6-6-6-6-6-6-6-|-6-6-6-6-6-6-6-6--|
|-6-6-6-6-6-6-6-6-|-3-3-3-3-3-3-3-3-|-4-4-4-4-4-4-4-4-|-4-4-4-4-4-4-4-4--|
|-4-4-4-4-4-4-4-4-|-1-1-1-1-1-1-1-1-|-----------------|------------------|


  Gb5               E#5               C#5
  E E E E E E E E   E E E E E E E E   E E E E E E E E   E E E E E E E E
|-----------------|-----------------|-----------------|------------------|
|-----------------|-----------------|-----------------|------------------|
|-----------------|-8-8-8-8-8-8-8-8-|-6-6-6-6-6-6-6-6-|-6-6-6-6-6-6-6-6--|
|-6-6-6-6-6-6-6-6-|-8-8-8-8-8-8-8-8-|-6-6-6-6-6-6-6-6-|-6-6-6-6-6-6-6-6--|
|-6-6-6-6-6-6-6-6-|-6-6-6-6-6-6-6-6-|-4-4-4-4-4-4-4-4-|-4-4-4-4-4-4-4-4--|
|-4-4-4-4-4-4-4-4-|-----------------|-----------------|------------------|


  Gb5               F5                C#5
  E E E E E E E E   E E E E E E E E   E E E E E E E E   E E E E E E E E
|-----------------|-----------------|-----------------|------------------|
|-----------------|-----------------|-----------------|------------------|
|-----------------|-----------------|-6-6-6-6-6-6-6-6-|-6-6-6-6-6-6-6-6--|
|-6-6-6-6-6-6-6-6-|-3-3-3-3-3-3-3-3-|-6-6-6-6-6-6-6-6-|-6-6-6-6-6-6-6-6--|
|-6-6-6-6-6-6-6-6-|-3-3-3-3-3-3-3-3-|-4-4-4-4-4-4-4-4-|-4-4-4-4-4-4-4-4--|
|-4-4-4-4-4-4-4-4-|-1-1-1-1-1-1-1-1-|-----------------|------------------|


   Chorus
    Gb5               E#5               C#5
    E E E E E E E E   E E E E E E E E   E E E E E E E E   E E E E E E E E  4x
||------------------|-----------------|-----------------|------------------||
||o-----------------|-----------------|-----------------|-----------------o||
||------------------|-8-8-8-8-8-8-8-8-|-6-6-6-6-6-6-6-6-|-6-6-6-6-6-6-6-6--||
||--6-6-6-6-6-6-6-6-|-8-8-8-8-8-8-8-8-|-6-6-6-6-6-6-6-6-|-6-6-6-6-6-6-6-6--||
||o-6-6-6-6-6-6-6-6-|-6-6-6-6-6-6-6-6-|-4-4-4-4-4-4-4-4-|-4-4-4-4-4-4-4-4-o||
||--4-4-4-4-4-4-4-4-|-----------------|-----------------|------------------||


   Guitar Break
    C                A#               C                A#
    E E E E E E Q    E E E E E E Q    E E E E E E Q    E E E E E E Q
||-----------------|----------------|----------------|-----------------||
||o----------------|----------------|----------------|----------------o||
||--5-----5-----5--|-3-----3-----3--|-5-----5-----5--|-3-----3-----3---||
||-----------------|----------------|----------------|-----------------||
||o---x-x---x-x----|---x-x---x-x----|---x-x---x-x----|---x-x---x-x----o||
||-----------------|----------------|----------------|-----------------||


    Ab5               C5                Fb5               E5
    E E E E E E Q     E E E E E E Q     E E E E E E Q     E E E E E E Q    4x
||------------------|-----------------|-----------------|------------------||
||o-----------------|-----------------|-----------------|-----------------o||
||--5-----5-----5---|-3-----3-----3---|-5-----5-----5---|-3-----3-----3----||
||------------------|-----------------|-----------------|------------------||
||o---x-x---x-x-----|---x-x---x-x-----|---x-x---x-x-----|---x-x---x-x-----o||
||------------------|-----------------|-----------------|------------------||
|
|   Gtr II
|   PM------------------------------------------------------------------|
|   E E E E E E E E   E E E E E E E E   E E E E E E E E   E E E E E E E E  4x
||------------------|-----------------|-----------------|------------------||
||o-----------------|-----------------|-----------------|-----------------o||
||------------------|-5-5-5-5-5-5-5-5-|-----------------|------------------||
||--6-6-6-6-6-6-6-6-|-5-5-5-5-5-5-5-5-|-3-3-3-3-3-3-3-3-|-2-2-2-2-2-2-2-2--||
||o-6-6-6-6-6-6-6-6-|-3-3-3-3-3-3-3-3-|-3-3-3-3-3-3-3-3-|-2-2-2-2-2-2-2-2-o||
||--4-4-4-4-4-4-4-4-|-----------------|-1-1-1-1-1-1-1-1-|-0-0-0-0-0-0-0-0--||


    Gb5               F5                C5
    E E E E E E E E   E E E E E E E E   E E E E E E E E   E E E E E E E E
||------------------|-----------------|-----------------|------------------||
||o-----------------|-6-6-6-6-6-6-6-6-|-----------------|-----------------o||
||------------------|-5-5-5-5-5-5-5-5-|-5-5-5-5-5-5-5-5-|-5-5-5-5-5-5-5-5--||
||--6-6-6-6-6-6-6-6-|-3-3-3-3-3-3-3-3-|-5-5-5-5-5-5-5-5-|-5-5-5-5-5-5-5-5--||
||o-6-6-6-6-6-6-6-6-|-----------------|-3-3-3-3-3-3-3-3-|-3-3-3-3-3-3-3-3-o||
||--4-4-4-4-4-4-4-4-|-----------------|-----------------|------------------||


   Out Chorus
    Gb5               Eb5               C#5
    E E E E E E E E   E E E E E E E E   E E E E E E E E   E E E E E E E E  4x
||------------------|-----------------|-----------------|------------------||
||o-----------------|-----------------|-----------------|-----------------o||
||------------------|-8-8-8-8-8-8-8-8-|-6-6-6-6-6-6-6-6-|-6-6-6-6-6-6-6-6--||
||--6-6-6-6-6-6-6-6-|-8-8-8-8-8-8-8-8-|-6-6-6-6-6-6-6-6-|-6-6-6-6-6-6-6-6--||
||o-6-6-6-6-6-6-6-6-|-6-6-6-6-6-6-6-6-|-4-4-4-4-4-4-4-4-|-4-4-4-4-4-4-4-4-o||
||--4-4-4-4-4-4-4-4-|-----------------|-----------------|------------------||


 Outro
  Gb5                                 Fb5               E5
  PM------------------------------------------------|
  E E E E E E E E   E E E E E E E E   E E E E E E E E   W
|-----------------|-----------------|-----------------|------|
|-----------------|-----------------|-----------------|------|
|-----------------|-----------------|-----------------|------|
|-6-6-6-6-6-6-6-6-|-6-6-6-6-6-6-6-6-|-3-3-3-3-3-3-3-3-|-2----|
|-6-6-6-6-6-6-6-6-|-6-6-6-6-6-6-6-6-|-3-3-3-3-3-3-3-3-|-2----|
|-4-4-4-4-4-4-4-4-|-4-4-4-4-4-4-4-4-|-1-1-1-1-1-1-1-1-|-0----|


  +W           +W           +W           W
|------------|------------|------------|------|
|------------|------------|------------|------|
|------------|------------|------------|------|
|-(2)--------|-(2)--------|-(2)--------|------|
|-(2)--------|-(2)--------|-(2)--------|------|
|-(0)--------|-(0)--------|-(0)--------|------|


Duration Legend
---------------
W - whole; H - half; Q - quarter; E - 8th; S - 16th; T - 32nd; X - 64th; a - acciaccatura
+ - note tied to previous; . - note dotted; .. - note double dotted
Uncapitalized letters represent notes that are staccato (1/2 duration)
Irregular groupings are notated above the duration line
Duration letters will always appear directly above the note/fret number it represents the
duration for.  Duration letters with no fret number below them represent rests.  Multi-
bar rests are notated in the form Wxn, where n is the number of bars to rest for.  Low
melody durations appear below the staff

Tablature Legend
----------------
 h   - hammer-on
 p   - pull-off
 b   - bend
 pb  - pre-bend
 r   - bend release (if no number after the r, then release immediately)
 /\  - slide into or out of (from/to "nowhere")
 s   - legato slide
 S   - shift slide
<n>  - natural harmonic
[n]  - artificial harmonic
n(n) - tapped harmonic
 ~   - vibrato
 tr  - trill
 T   - tap
 TP  - trem. picking
 PM  - palm muting
\n/  - tremolo bar dip; n = amount to dip
 \n  - tremolo bar down
 n/  - tremolo bar up
/n\  - tremolo bar inverted dip
 =   - hold bend; also acts as connecting device for hammers/pulls
 <>  - volume swell (louder/softer)
 x   - on rhythm slash represents muted slash
 o   - on rhythm slash represents single note slash

Misc Legend
-----------
 |  - bar
||  - double bar
||o - repeat start
o|| - repeat end
*|  - double bar (ending)
 :  - bar (freetime)
 $  - Segno
 &  - Coda
Tempo markers - <E/E./Q/Q./H/H.> = BPM(8/16=s8/s16), where s8 = swing 8ths, s16 = swing 16ths
            
Hard to play? Try these video lessons and learn fast. | Correct




comments powered by Disqus
↑ Back to top | Tablatures and chords are parodies/interpretations of the original songs. You may use it for private study, scholarship, research or language learning purposes only