>
 >
Dear James

Dear James Guitar Tabs

Consumed - Dear James chords, tabs, tablatures, lyrics

Guitar lessons | Add/correct | Request | Top 50 tabs Artists:  A B C D E F G H I J K L M N O P Q R S T U V W X Y Z 0-9

Dear James Guitar Tabs – Consumed

CD, Sheet music, Poster

Do you like Dear James? Share with your friends now
TabsTabs v2
Consumed - Dear James

Guitar 1 intro X2  /=slide up *=repeat note until next bar 
E--------------------------|------------------------------| 
B--------------------------|------------------------------| 
G--------------------------|------------------------------| 
D----------------------*---|--------------------------*---| 
A------6-----/8--6--3--6---|------6-----/8--6--3h6-3--6---| 
E---4-----4----------------|---4-----4--------------------| 

intro guitar2 '=play note X4 "=play note X8 
E----------------------------|--------------------> 
B-------"----"---'-----------|-------"----"---"---> 
G---"---10---8---8-----------|---"---10---5---5---> 
D---6---10---8---8---6-553---|---6---10---5---5---> 
A---6---8----6---6---6-553---|---6---8----3---3---> 
E---4----------------4-331---|---4----------------> 

--------------------|----------------------------| 
-------"----"---"---|-------"----"---'-----------| 
---"---10---8---8---|---"---10---5---5-----------| 
---6---10---8---8---|---6---10---5---5---6-553---| 
---6---8----6---6---|---6---8----3---3---6-553---| 
---4----------------|---4----------------4-331---| 

verse 1 X2 both guitars @=play note X16 
E---------------| 
B---------------| 
G---@---"---"---| play each note once 
D---6---3---2---| then palm mute the rest 
A---6---3---2---| 
E---4---1---0---| 

verse 2 X2 both guitars
E---------------|---------------| 
B-----------"---|-------"---@---| 
G---@---"---6---|---"---8---6---| 
D---6---3---6---|---6---8---6---| 
A---6---3---4---|---6---6---4---| 
E---4---1-------|---4-----------| 

Then play verse 1 followed by verse 2 again. 

lead guitar
E---------------------------------------| 
B---------------------------------------| 
G---------------------------------------| 
D---6-6--4-6--4-6-8--9-9--8-8--6-6--8---| 
A---------------------------------------| 
E---------------------------------------| 

Then play verse#2. 

chorus X2 both guitars then pick slide
E---------------| 
B-------"---"---| 
G---"---8---6---| 
D---6---8---6---| 
A---6---6---4---| 
E---4-----------| 

bridge x6 guitar 1, Palm mute it all
E----------------------------------------------------> 
B----------------------------------------------------> 
G----------------------------------------------------> 
D---10-------10-------10------8-------8-------8------> 
A------11-11----11-11----11-----10-10---10-10---10---> 
E----------------------------------------------------> 

E----------------------------------------------------| 
B----------------------------------------------------| 
G----------------------------------------------------| 
D---10-------10-------10------8-------8-------8------| 
A------8--8-----8--8-----8------7--7----7--7----7----| 
E----------------------------------------------------| 

bridge guitar 2(join in on lead guitars third time) 
E--------X2---------|---------X2--------| 
B----palm--mute-----|-------------------| 
G-------5-----------|-------5-----------| 
D---6---5---3---2---|---6---5---3---2---| 
A---6---3---3---2---|---6---3---3---2---| 
E---4-------1---0---|---4-------1---0---| 

Then play half of the intro and then the chorus twice. 

outro# gtr1 
E----------------------| 
B----------------------| 
G-----@----------------| 
D---6-6---3---2--------| 
A---6-6---3---2-let----| 
E---4-4---1---0-ring---|





Comments


Popular Consumed tabs & chords
Heavy Metal Winner Bass Tabs
Out On Your Own Bass Tabs
A Twat Called Maurice Tabs
Blibber Blabber Tabs
Bye Bye Fat Man Tabs
Dear James 1 Tabs
Heavy Metal Winner 1 Tabs
Not Today Tabs
Take It On The Chin Tabs
Wake Up With A Smile Tabs


Song lyrics



↑ Back to top | Tablatures and chords are parodies/interpretations of the original songs. You may use it for private study, scholarship, research or language learning purposes only
© 2014 AZChords.com Contact us | Privacy policy | DMCA | Add/correct tabs | Request tabs | Top 50 tabs