» » »

Consumed, Bye Bye Fat Man Tabs (ver.1)

Artists:  A B C D E F G H I J K L M N O P Q R S T U V W X Y Z # 

Bye Bye Fat Man Tabs (ver.1)

Consumed Tabs
 Rating:
4/5 (4 votes)
Bye Bye Fat Man lessons Tabs too difficult? Try these video lessons and learn fast
1
                Consumed - Bye Bye Fatman


Intro + Verse: (Note: The single notes should be kinda played along with the chords)
Power Chords(PM)

          F                           G#

E--X-X-X-X-X-X-X-X-1-1-1-1-1-0---X-X-X-X-X-X-X-X-4--4--4--   
B--X-X-X-X-X-X-X-X-------------4-X-X-X-X-X-X-X-X--4--4--4-
G--X-X-X-X-X-X-X-X---------------X-X-X-X-X-X-X-X---------- X2
D--3-3-3-3-3-3-3-3---------------6-6-6-6-6-6-6-6----------
A--3-3-3-3-3-3-3-3---------------6-6-6-6-6-6-6-6----------
E--1-1-1-1-1-1-1-1---------------4-4-4-4-4-4-4-4----------

Power Chords(no muting)

         F                              G#

E--X-X-X-X-X-X-X-X-1-1-1-1-1-0---X-X-X-X-X-X-X-X-4--4--4--   
B--X-X-X-X-X-X-X-X-------------4-X-X-X-X-X-X-X-X--4--4--4-
G--X-X-X-X-X-X-X-X---------------X-X-X-X-X-X-X-X---------- X2
D--3-3-3-3-3-3-3-3---------------6-6-6-6-6-6-6-6----------
A--3-3-3-3-3-3-3-3---------------6-6-6-6-6-6-6-6----------
E--1-1-1-1-1-1-1-1---------------4-4-4-4-4-4-4-4----------

Verse: Repeat everything above, the repeat the verse again

Chorus:

Fast Power Chords(no muting)

      Fii          C            A#       G#

E--X--X--X--X---X--X--X--X-X-X-X-X-X-X-X--X--------------
B--X--X--X--X---X--X--X--X-X-X-X-X-X-X-X--X--------------
G-10-10-10-10---X--X--X--X-X-X-X-X-X-X-X--X--------------  play it like this two times...
D-10-10-10-10--10-10-10--8-8-8-8-8-8-8-8--6--------------
A--8--8--8--8--10-10-10--8-8-8-8-8-8-8-8--6--------------
E--X--X--X--X---8--8--8--6-6-6-6-6-6-6-6--4--------------

...then play it like this

      Fii         C            A#                G#               F               G# 

E--X--X--X--X---X--X--X--X-X-X-X-X-X-X-X---X-X-X-X-X-X-X-X--X-X-X-X-X-X-X-X--X-X-X-X-X-X-X-X-
B--X--X--X--X---X--X--X--X-X-X-X-X-X-X-X---X-X-X-X-X-X-X-X--X-X-X-X-X-X-X-X--X-X-X-X-X-X-X-X-
G-10-10-10-10---X--X--X--X-X-X-X-X-X-X-X---X-X-X-X-X-X-X-X--X-X-X-X-X-X-X-X--X-X-X-X-X-X-X-X-
D-10-10-10-10--10-10-10--8-8-8-8-8-8-8-8---6-6-6-6-6-6-6-6--3-3-3-3-3-3-3-3--6-6-6-6-6-6-6-6-
A--8--8--8--8--10-10-10--8-8-8-8-8-8-8-8---6-6-6-6-6-6-6-6--3-3-3-3-3-3-3-3--6-6-6-6-6-6-6-6-
E--X--X--X--X---8--8--8--6-6-6-6-6-6-6-6---4-4-4-4-4-4-4-4--1-1-1-1-1-1-1-1--4-4-4-4-4-4-4-4-

        F

E--X-X-X-X-X-X-X-X---------------------------------------------------------------------------
B--X-X-X-X-X-X-X-X---------------------------------------------------------------------------
G--X-X-X-X-X-X-X-X----------------------Back to the Verse------------------------------------
D--3-3-3-3-3-3-3-3---------------------------------------------------------------------------
A--3-3-3-3-3-3-3-3---------------------------------------------------------------------------
E--1-1-1-1-1-1-1-1---------------------------------------------------------------------------

Verse twice then Chorus again. Listen to the song to get the rhythm, and also, i appologize if i left
out any parts(I dont have the cd... ive heard the song a lot, and have it stuck in my head; im 
pretty sure this is right though).

Lyrics:

 
Verse 1

Here she comes, clothes packed in her suitcase. Here she comes,
wearing make-up upon her face. Here she comes, always looking on the bright   
side. Here she comes, sucking on my good side

Here she comes, clothes packed in her suitcase. Here she comes,
wearing make-up upon her face. Here she comes, always looking on the bright   
side. Here she comes, sucking on my good side
       

chorus: She said to me no-one cares and I've a good idea why. If I said that
I did care, then it would be a lie. No-one cares about you and I've a good
idea why. Good idea why (3x)

Verse 2
Here she comes, knocking upon my door. Just the same you'd think by now
she'd know the score. Here she comes, looking for a free ride. Here she
comes, sucking on my good side

Verse 1

Chorus

Here she comes 
Here she comes
Here she comes
Here she comes



-Ilja
            
Submit corrections

comments powered by Disqus
↑ Back to top | Consumed Tabs for Bye Bye Fat Man. Lyrics for acoustic guitar and electric guitar. 1 Tablatures and chords are parodies/interpretations of the original songs. You may use it for private study, scholarship, research or language learning purposes only