>
 >
Traffic Stop

Traffic Stop Guitar Tabs

Constellation - Traffic Stop chords, tabs, tablatures, lyrics

Guitar lessons | Add/correct | Request | Top 50 tabs Artists:  A B C D E F G H I J K L M N O P Q R S T U V W X Y Z 0-9

Traffic Stop Guitar Tabs – Constellation

CD, Sheet music, Poster

Do you like Traffic Stop? Share with your friends now
Tabs
-------------------------------------------------------------------------------
-------------------------------------------------------------------------------


let note ring  = ~
hammer on      = h
palm mute      = .....

Intro
e|-------------------------------------------------------------|
B|-------------------------------------------------------------|
G|-------------------------------------------------------------|
D|-6----6----6----6----6----6----4----4----4----7----7----7----|
A|---77---77---77---00---00---00---00---00---00---00---00---00-|
E|-------------------------------------------------------------|

e|-------------------------------------------------------------|
B|-------------------------------------------------------------|
G|-------------------------------------------------------------|
D|-6----6----6----6----6----6----9----9----9----7----7----7----|
A|---77---77---77---00---00---00---00---00---00---00---00---00-|
E|-------------------------------------------------------------|

e|------------------------------------------------------------|
B|------------------------------------------------------------|
G|------------------------------------------------------------|
D|-6----6----6----6----6----6----4----4----4----7----7----7h9-|
A|---77---77---77---00---00---00---00---00---00---00---00-----|
E|------------------------------------------------------------|

e|-------------------------------------------------|
B|-------------------------------------------------|
G|-------------------------------------------------|
D|-6----6----6----9----9----9----7----7----7----6~-|
A|---77---77---77---00---00---00---00---00---00----|
E|-------------------------------------------------|

Chorus
e|----------------------------------------|
B|----------------------------------------|
G|-9-9-9-x9------------8-8-8-x8-----------|
D|-9-9-9-x9--66666666--8-8-8-x8--99999999-|
A|-7-7-7-x7--66666666--6-6-6-x6--99999999-|
E|-----------44444444------------77777777-|

e|-------------------------------------|
B|-------------------------------------|
G|-9-9-9-x9------------8-8-8--11111111-|
D|-9-9-9-x9--66666666--8-8-8---x-x-x-x-|
A|-7-7-7-x7--66666666--6-6-6---9-9-9-9-|
E|-----------44444444------------------|

e|------------------------------------------------|
B|------------------------------------------------|
G|-9-9-9-x9--1111111111--13-13-13-x13--1111111111-|
D|-9-9-9-x9--1111111111--13-13-13-x13--1111111111-|
A|-7-7-7-x7---9-9-9-9-9--11-11-11-x11---9-9-9-9-9-|
E|------------------------------------------------|

e|----------------------------------------|
B|----------------------------------------|
G|-9-9-9-x9------------8-8-8-x8-----------|
D|-9-9-9-x9--66666666--8-8-8-x8--99999999-|
A|-7-7-7-x7--66666666--6-6-6-x6--99999999-|
E|-----------44444444------------77777777-|

Verse
e|-------------------------------------------------------------|
B|-------------------------------------------------------------|
G|-9999999999999999------------------6666666666-777777777/6666-|
D|-9999999999999999-9999999999999999-6666666666-777777777/6666-|
A|-7777777777777777-9999999999999999-4444444444-555555555/4444-| x2
E|------------------7777777777777777---------------------------|
pm  ...........      ...... .. .. ..  ......     ........ 

Chorus
e|----------------------------------------|
B|----------------------------------------|
G|-9-9-9-x9------------8-8-8-x8-----------|
D|-9-9-9-x9--66666666--8-8-8-x8--99999999-|
A|-7-7-7-x7--66666666--6-6-6-x6--99999999-| x4
E|-----------44444444------------77777777-|

Verse
e|-------------------------------------------------------------|
B|-------------------------------------------------------------|
G|-9999999999999999------------------6666666666-777777777/6666-|
D|-9999999999999999-9999999999999999-6666666666-777777777/6666-|
A|-7777777777777777-9999999999999999-4444444444-555555555/4444-| x2
E|------------------7777777777777777---------------------------|
pm  ...........      ...... .. .. ..  ......     ........ 

Chorus
e|----------------------------------------|
B|----------------------------------------|
G|-9-9-9-x9------------8-8-8-x8-----------|
D|-9-9-9-x9--66666666--8-8-8-x8--99999999-|
A|-7-7-7-x7--66666666--6-6-6-x6--99999999-| x4
E|-----------44444444------------77777777-|

Breakdown
e|-----------------------------|
B|-----------------------------|
G|-9-99-9--6-66-6--88888888888-|
D|-9-99-9--6-66-6--88888888888-|
A|-7-77-7--4-44-4--66666666666-| x2
E|-----------------------------|
pm   ..      ..

e|----------------------------------------|
B|----------------------------------------|
G|-99999999-666666666---------------------|
D|-99999999-666666666-666666666-999999999-|
A|-77777777-444444444-666666666-999999999-|
E|--------------------444444444-777777777-|

e|---------------------------------------------------------|
B|---------------------------------------------------------|
G|-99-x-6-9/8---99-x-6-9/8---99-x-6-9/8--13131313-11111111-|
D|-xx-x-x-x/x---xx-x-x-x/x---xx-x-x-x/x---x-x-x-x--x-x-x-x-|
A|-77-x-4-7/6---77-x-4-7/6---77-x-4-7/6--11111111--9-9-9-9-|
E|---------------------------------------------------------|

e|---------------------------------------------------------|
B|---------------------------------------------------------|
G|-99-x-6-9/8---99-x-6-9/8---99-x-6-9/8---1111111111111111-|
D|-xx-x-x-x/x---xx-x-x-x/x---xx-x-x-x/x----x-x-x-x-x-x-x-x-|
A|-77-x-4-7/6---77-x-4-7/6---77-x-4-7/6----9-9-9-9-9-9-9-9-|
E|---------------------------------------------------------|

e|----------------------------------------------------------------|
B|----------------------------------------------------------------|
G|-99-x-6-111111---99-x-6-131313--99-x-6-111111-13131313-11111111-|
D|-xx-x-x--x-x-x---xx-x-x--x-x-x--xx-x-x--x-x-x--x-x-x-x--x-x-x-x-|
A|-77-x-4--9-9-9---77-x-4-111111--77-x-4--9-9-9-11111111--9-9-9-9-|
E|----------------------------------------------------------------|

e|---------------------------------------------------------|
B|---------------------------------------------------------|
G|-99-x-6-9/8---99-x-6-9/8---99-x-6-9/8--13131313-11111111-|
D|-xx-x-x-x/x---xx-x-x-x/x---xx-x-x-x/x---x-x-x-x--x-x-x-x-|
A|-77-x-4-7/6---77-x-4-7/6---77-x-4-7/6--11111111--9-9-9-9-|
E|---------------------------------------------------------|

Chorus
e|----------------------------------------|
B|----------------------------------------|
G|-9-9-9-x9------------8-8-8-x8-----------|
D|-9-9-9-x9--66666666--8-8-8-x8--99999999-|
A|-7-7-7-x7--66666666--6-6-6-x6--99999999-|
E|-----------44444444------------77777777-|

e|-------------------------------------|
B|-------------------------------------|
G|-9-9-9-x9------------8-8-8--11111111-|
D|-9-9-9-x9--66666666--8-8-8---x-x-x-x-|
A|-7-7-7-x7--66666666--6-6-6---9-9-9-9-|
E|-----------44444444------------------|

e|------------------------------------------------|
B|------------------------------------------------|
G|-9-9-9-x9--1111111111--13-13-13-x13--1111111111-|
D|-9-9-9-x9--1111111111--13-13-13-x13--1111111111-|
A|-7-7-7-x7---9-9-9-9-9--11-11-11-x11---9-9-9-9-9-|
E|------------------------------------------------|

e|----------------------------------------|
B|----------------------------------------|
G|-9-9-9-x9------------8-8-8-x8-----------|
D|-9-9-9-x9--66666666--8-8-8-x8--99999999-|
A|-7-7-7-x7--66666666--6-6-6-x6--99999999-|
E|-----------44444444------------77777777-|

===============================================================================





Comments


Popular Constellation tabs & chords
A Summer Not Remembered Tabs
Adam's Family Theme Tabs
Calm In Rain Tabs
Did You Think Tabs
Fighting For A New Life Tabs
Forever Seemed To Long Tabs
Halloween Theme Tabs
Side Your Smile Tabs
Tales From The Crypt Theme Tabs
The Perfect Day Tabs


Song lyrics



↑ Back to top | Tablatures and chords are parodies/interpretations of the original songs. You may use it for private study, scholarship, research or language learning purposes only
© 2014 AZChords.com Contact us | Privacy policy | DMCA | Add/correct tabs | Request tabs | Top 50 tabs