» » »

Confide, My Choice Of Words Tabs (ver.1)

Artists:  A B C D E F G H I J K L M N O P Q R S T U V W X Y Z # 

My Choice Of Words Tabs (ver.1)

Confide Tabs
 Rating:
4.4/5 (7 votes)
My Choice Of Words lessons Tabs too difficult? Try these video lessons and learn fast
                -------------------------------------------------------------------------------
-------------------------------------------------------------------------------

Tuning: Drop C

Intro Breakdown:

e|---------------------------------------------------------------------------|
B|---------------------------------------------------------------------------|
G|---------------------------------------------------------------------------|
D|-0000000-0-0-0-000000-0-0-0-|----------------------------------------------|
A|-0000000-0-0-0-000000-0-0-0-|-x2-------------------------------------------|
E|-0000000-0-0-0-000000-0-0-0-|----------------------------------------------|

e|---------------------------------------------------------------------------|
B|---------------------------------------------------------------------------|
G|---------------------------------------------------------------------------|
D|---------------------------------|-----------------------------------------|
A|-----------6-5-5----------6-5-8--|-x2--------------------------------------|
E|-0130310----------01310----------|-----------------------------------------|
    hhphhp           hhpp

Verse:
e|---------------------------------------------------------------------------|
B|---------------------------------------------------------------------------|
G|---------------------------------------------------------------------------|
D|-------------------------------|-----------3------------7------------------|
A|---6-5-5--------6-5-8----------|-x2----6-5-5--------6-5-8------------------|
E|---------01310--------0130310--|-------------01310---------0130310---------|
            hhpp         hhphhp                 hhpp          hhphhp


pre chorus
e|---------------------------------------------------------------------------|
B|---------------------------------------------------------------------------|
G|---777-999-{10>>>>>>}------------------------------------------------------|
D|---xxx-xxx-xxxxxxxxxx------------------------------------------------------|
A|---555-777-8888888888------------------------------------------------------|
E|---------------------------------------------------------------------------|


chorus
e|---------------------------------------------------------------------------|
B|-------666-666-666--------111111-111111-101010-----------------------------|
G|-------555-555-555--------101010-101010-101010--|--------------------------|
D|--000--333-333-333---000--8-8-8--8-8-8--8-8-8---|-x8-----------------------|
A|--000--333-333-333---000--8-8-8--8-8-8--8-8-8---|--------------------------|
E|--000--333-333-333---000--8-8-8--8-8-8--8-8-8---|--------------------------|

mini breakdow
e|---------------------------------------------------------------------------|
B|---------------------------------------------------------------------------|
G|---------------------------------------------------------------------------|
D|-0000000-0-0-0-000000-0-0-0-|----------------------------------------------|
A|-0000000-0-0-0-000000-0-0-0-|-x2-------------------------------------------|
E|-0000000-0-0-0-000000-0-0-0-|----------------------------------------------|

verse
e|-------------------------------|-------------------------------------------|
B|-------------------------------|-------------------------------------------|
G|-------------------------------|-------------------------------------------|
D|-------------------------------|x2-----------------------------------------|
A|-----------6-5-5--------6-5-8--|-------------------------------------------|
E|--0130310---------01310--------|-------------------------------------------|
     hhphhp          hhpp
e|-------------------------------|-------------------------------------------|
B|-------------------------------|-------------------------------------------|
G|-------------------------------|-------------------------------------------|
D|---------------3------------7--|x2-----------------------------------------|
A|-----------6-5-5--------6-5-8--|-------------------------------------------|
E|--0130310---------01310--------|-------------------------------------------|
     hhphhp          hhpp

pre chorus
e|---------------------------------------------------------------------------|
B|---------------------------------------------------------------------------|
G|--14---17---14---10---14---17----------------------------------------------|
D|--x----x-----x---x----x----x-----------------------------------------------|
A|--12---15---12---8----12---15----------------------------------------------|
E|---------------------------------------------------------------------------|

Chorus (x8)


Breakdown

e|---------------------------------------------------------------------------|
B|---------------------------------------------------------------------------|
G|---------------------------------------------------------------------------|
D|-0=-------0-00-0--0-00-00-0-00-00------------------------------------------|
A|-0=-------0-00-0--0-00-00-0-00-00------------------------------------------|
E|-0=-------0-00-0--0-00-00-0-00-00------------------------------------------|

e|---------------------------------------------------------------------------|
B|---------------------------------------------------------------------------|
G|---------------------------------------------------------------------------|
D|-0000000-0-0-0-000000-0-0-0-|----------------------------------------------|
A|-0000000-0-0-0-000000-0-0-0-|-x2-------------------------------------------|
E|-0000000-0-0-0-000000-0-0-0-|----------------------------------------------|

e|---------------------------------------------------------------------------|
B|---------------------------------------------------------------------------|
G|---------------------------------------------------------------------------|
D|---------------------------------|-----------------------------------------|
A|-----------6-5-5----------6-5-8--|-x2--------------------------------------|
E|-0130310----------01310----------|-----------------------------------------|
    hhphhp           hhpp

ending chorus
e|---------------------------------------------------------------------------|
B|-------666-666-666--------111111-111111-101010-----------------------------|
G|-------555-555-555--------101010-101010-101010--|--------------------------|
D|--000--333-333-333---000--8-8-8--8-8-8--8-8-8---|-x4  Then 4 more times----|
A|--000--333-333-333---000--8-8-8--8-8-8--8-8-8---|-----but the struming-----|
E|--000--333-333-333---000--8-8-8--8-8-8--8-8-8---|-----pattern is different-|


lead over the end of the chorus
e|---13-12-------------------------------------------------------------------|
B|---------13-----------------------13-15-13---------------------------------|
G|------------14---12-14----------12-----------------------------------------|
D|---------------0-------14-15-14--------------------------------------------|
A|---------------------------------------------------------------------------|
E|---------------------------------------------------------------------------|


That should be almost perfect if you play along to the song.  If you have any 
or other requests shoot me and email and ill try it

out


************************************

| =   Let ring
| h   hammer-on
| p   pull-off
| x   Mute note


************************************
            
Submit corrections

comments powered by Disqus
↑ Back to top | Confide Tabs for My Choice Of Words. Lyrics for acoustic guitar and electric guitar. Tablatures and chords are parodies/interpretations of the original songs. You may use it for private study, scholarship, research or language learning purposes only