» » »

Confide, In Reply Bass tabs (ver.1)

Artists:  A B C D E F G H I J K L M N O P Q R S T U V W X Y Z # 

In Reply Bass tabs (ver.1)

Confide Tabs
Rating:
5/5 (1 vote)
In Reply lessons Tabs too difficult? Try these video lessons and learn fast
                /= slide
~=ring out


Verse

"i was backed in a corner..."
F|---------------------------------------------------------------|
C|---------------------------------------------------------------|
G|---------------------------------------------------------------|X3
C|-7-0-0-0-2-2-0~~9-9-9-10-10-10-10------------------------------|

F|---------------------------------------------------------------|
C|---------------------------------------------------------------|
G|---------------------------------------------------------------|
C|-7-0-0-0-2-2-0~~9-9-9-10-10-10-10--10-10-10-10-10-10-10--------|

F|--------------------------------------------------------------------------------|
C|--------------------------------------------------------------------------------|
G|--------------------------------------------------------------------------------|
C|-7---7-7-7-7----7-7---7---7-7-7-7-3~~~~~7---7-7-7-7--7-7--7-7---7---7-7-7-7-3~~~|

Chorus

F|-----------------------------------------------------------------------------------------------|
C|-----------------------------------------------------------------------------------------------|
G|-------------------------------------3-3-3-3-3-3-3-3-5-5-5-5-5-5-5-5---------------------------|X2
C|-2-2-2-2-2-2-2-2~~~~-0-0-0-0-0-0-0-0---------------------------------5-5-5-5-5-5-5-5-0-0-0-0---|

Breakdown

F|---------------------------------------------------------------|
C|---------------------------------------------------------------|
G|---------------------------------------------------------------|X2
C|-2---2-2-2-2--2-2-----2---2-2-2-2--2-2--2-2--------------------|

Buildup

F|---------------------------------------------------------------------------|
C|---------------------------------------------------------------------------|
G|-------------------------------------------------7-7-7-7-7-7-7-7-9-9-10-10-|
C|-2~~~~~~~~~-14-14-14-14-14-14-14-14-14-2~~~~~~~~~--------------------------|

Verse 2

F|---------------------------------------------------------------|
C|---------------------------------------------------------------|
G|-2/3-3-3-3/5-5-5-----------------------------------------------|X4
C|-----------------2-2-2-2-2-2-2-2-------------------------------|

F|---------------------------------------------------------------|
C|---------------------------------------------------------------|
G|---------------------------------------------------------------|X4
C|-7-0-0-0-2-2-0~~9-9-9-10-10-10-10------------------------------|

Chorus

F|-----------------------------------------------------------------------------------------------|
C|-----------------------------------------------------------------------------------------------|
G|-------------------------------------3-3-3-3-3-3-3-3-5-5-5-5-5-5-5-5---------------------------|X2
C|-2-2-2-2-2-2-2-2~~~~-0-0-0-0-0-0-0-0---------------------------------5-5-5-5-5-5-5-5-0-0-0-0---|

Bridge

F|---------------------------------------------------------------|
C|---------------------------------------------------------------|
G|---------------------------------------------------------------|
C|-2----4--0-------10-----12--9---2-5-5/0------------------------|

Outro

"ive got a feeling and its beginning to make sense..."
F|---------------------------------------------------------------------------------|
C|---------------------------------------------------------------------------------|
G|---------------------------------------------------------------------------------|
C|-10-10-10-10-10-10-10-10-10-10-10-10-12-12-12-12-9-9-9-9-9-9-9-9-7-7-7-7-5-5-5-5-|

F|---------------------------------------------------------------------------------|
C|---------------------------------------------------------------------------------|
G|---------------------------------------------------------------------------------|
C|-10-10-10-10-10-10-10-10-10-10-10-10-12-12-12-12-9-9-9-9-9-9-9-9-2-2-2-2-5-5-5-5-|

X2
            

comments powered by Disqus
↑ Back to top | Confide Bass for In Reply. Lyrics for acoustic guitar and electric guitar. Tablatures and chords are parodies/interpretations of the original songs. You may use it for private study, scholarship, research or language learning purposes only