» » »

Confide, In Reply Tabs (ver.1)

Artists:  A B C D E F G H I J K L M N O P Q R S T U V W X Y Z # 

In Reply Tabs (ver.1)

Confide Tabs
Rating:
4/5 (2 votes)
In Reply lessons Tabs too difficult? Try these video lessons and learn fast
                This song has a ton of chords and strumming so on most parts amount of strumming is not 
long you have to just put the chords to the strumming patterns but it is 100% right

Intro
D |------------------------------------------------------------------|
A |------------------------------------------------------------------|
F |-0-0-0-0-0-0-0-0-0-0-0-0-0-0--------------------------------------|
C |-5-5-5-5-5-5-5-5-5-5-5-5-5-5--------------------------------------|
G |-2-2-2-2-2-2-2-3-3-3-3-3-3-3--------------------------------------|
C |------------------------------------------------------------------|

Verse 1
D |-------------------------------------------------------------------|
A |-------------------------------------------------------------------|
F |-0-----------0-0-0-0-0-0-0-0-0-0----0-0-0--0-0-0-------------------|
C |-9-0x3-2-2-0-4-4-4-4-4-4-4-4-4-4----5-5-5--4-4-4-------------------|
G |-7-0x3-2-2-0-2-2-2-3-3-3-3-3-3-3----2-2-2--3-3-3-------------------|
C |-7-0x3-2-2-0-------------------------------------------------------|

Breakdown 1
D |-------------------------------------------------------------------|
A |-------------------------------------------------------------------|
F |-------------------------------------------------------------------|
C |-0-0-0----0--------------------------------------------------------|
G |-5-5-5----4--------------------------------------------------------|
C |-2-2-2----3--------------------------------------------------------|

Pre Chorus
D |-------------------------------------------------------------------|
A |-------------------------------------------------------------------|
F |-0-0-0-0-0-0-0-0-0-0-----------------------------------------------|
C |-4-4-4-4-4-2-2-2-2-2-----------------------------------------------|
G |-------------------------------------------------------------------|
C |-------------------------------------------------------------------|

Chorus
D |---------0-----------0------------------------------------------------|
A |---------0-----------0------------------------------------------------|
F  |---------0-----------0-----------------------------------------------|
C |-4-4-4-4-4---4-4-4-4-2---0-0-0-0--0-0-0---7-7-7-7-7--5-5-5-4-4-4------|
G |-2-2-2-2-2---0-0-0-0-0---5-5-5-5--5-5-5---5-5-5-5-5--0-0-0-0-0-0------|
C |-2-2-2-2-2---0-0-0-0-0---3-3-3-3--3-3-3---5-5-5-5-5--0-0-0-0-0-0------|

Build up
D |-0---------------------------------------------------------------------|
A |-0---------------------------------------------------------------------|
F  I-0--------------------------------------------------------------------|
C |-4-ring out------------------------------------------------------------|
G |-----------------------------------------------------------------------|
C |-----------------------------------------------------------------------|

Breakdown
D |----------------------------------------------------------------------|
A |----------------------------------------------------------------------|
F |----------------------------------------------------------------------|
C |-2-2222-22-2-2222-22-22-----------------------------------------------|
G |-2-2222-22-2-2222-22-22-----------------------------------------------|
C |-2-2222-22-2-2222-22-22-repeat----------------------------------------|

Bridge build up
D |----------------------------------------------------------------------|
A |----------------------------------------------------------------------|
F  |-000000000000000-----------------------------------------------------|
C |-555554444444444------------------------------------------------------|
G |-333333333355555------------------------------------------------------|
C |-222222222222222-repeat-----------------------------------------------|

Bridge
D |----------------------------------------------------------------------|
A |-0-0-0----------------------------------------------------------------|
F |-0-0-0-000-000--------------------------------------------------------|
C |-5-5-5-555-444--------------------------------------------------------|
G |-2-3-5-222-222--------------------------------------------------------|
C |-------222-222-repeat-------------------------------------------------|

Verse 2
D |-------------------------------------------------------------------|
A |-------------------------------------------------------------------|
F |-0-----------0-0-0-0-0-0-0-0-0-0----0-0-0--0-0-0-------------------|
C |-9-0x3-2-2-0-4-4-4-4-4-4-4-4-4-4----5-5-5--4-4-4-------------------|
G |-7-0x3-2-2-0-2-2-2-3-3-3-3-3-3-3----2-2-2--3-3-3-------------------|
C |-7-0x3-2-2-0-------------------------------------------------------|

Pre Chorus
D |-------------------------------------------------------------------|
A |-------------------------------------------------------------------|
F |-0-0-0-0-0-0-0-0-0-0-----------------------------------------------|
C |-4-4-4-4-4-2-2-2-2-2-----------------------------------------------|
G |-------------------------------------------------------------------|
C |-------------------------------------------------------------------|

Chorus
D |---------0-----------0------------------------------------------------|
A |---------0-----------0------------------------------------------------|
F  |---------0-----------0-----------------------------------------------|
C |-4-4-4-4-4---4-4-4-4-2---0-0-0-0--0-0-0---7-7-7-7-7--5-5-5-4-4-4------|
G |-2-2-2-2-2---0-0-0-0-0---5-5-5-5--5-5-5---5-5-5-5-5--0-0-0-0-0-0------|
C |-2-2-2-2-2---0-0-0-0-0---3-3-3-3--3-3-3---5-5-5-5-5--0-0-0-0-0-0------|

Outro build up
D |------------------0-----0---------------------------------------------|
A |-0-0-0-0----------0-----0---------------------------------------------|
F  |-0-0-0-0----------7-----7--------------------------------------------|
C |-2-4-5-7-repeat----5-----5--------------------------------------------|
G |------------------3-----3---------------------------------------------|
C |----------------------------------------------------------------------|

Outro
D |-00000-00000-00000-000000---------------------------------------------|
A |-00000-00000-00000-000000---------------------------------------------|
F  |-77777-55555-00000-000000--------------------------------------------|
C |-55555-55555-44444-444222---------------------------------------------|
G |-33333-33333-22222-000000---------------------------------------------|
C |-------------22222-000000---------------------------------------------|
            

comments powered by Disqus
↑ Back to top | Confide Tabs for In Reply. Lyrics for acoustic guitar and electric guitar. Tablatures and chords are parodies/interpretations of the original songs. You may use it for private study, scholarship, research or language learning purposes only