» » »

Holes Bass tabs (ver.1)

Artists:  A B C D E F G H I J K L M N O P Q R S T U V W X Y Z # 

Holes Bass tabs (ver.1)

Confide
Rating:
0/5 (0 votes)

Hard to play? Try these video lessons and learn fast.
                Verse
F |--------------------------------------------------------------------------|
C |--------------------------------------------------------------------------|
G |--------------------------------------------------------------------------|
C |-10-10-10-10-10-10-7/0-3-3-3-3-5-5-5-5------------------------------------|X4

Pre-Chorus
F |----------------------------------------------------------------------------|
C |----------------------------------------------------------------------------|
G |----------------------------------------------------------------------------|
C |-2-2-2-2-2-2-2-2-10-10-10-10-10-10-10-10-3-3-3-3-3-3-3-3-0-0-0-0-0-0-0-0----|X2

Chorus
F |--------------------------------------------------------------------------|
C |--------------------------------------------------------------------------|
G |--------------------------------------------------------------------------|
C |-7-7-7-10-10-10-7-7-7-10-10-10-3-3-3-3-3-3-3-3----------------------------|

F |--------------------------------------------------------------------------|
C |--------------------------------------------------------------------------|
G |--------------------------------------------------------------------------|
C |-7-7-7-10-10-10-14-14-14-12-12-12-15-15-15-15-15-15-15-15-----------------|X2

Breakdown
F |--------------------------------------------------------------------------|
C |--------------------------------------------------------------------------|
G |--------------------------------------------------------------------------|
C |-9-9-9--------9-9-9-----2-2-2-----2-2-2-----2-2-2----2-2-2----------------|

Verse
F |--------------------------------------------------------------------------|
C |--------------------------------------------------------------------------|
G |--------------------------------------------------------------------------|
C |-10-10-10-10-10-10-7/0-3-3-3-3-5-5-5-5------------------------------------|X4

Pre-Chorus
F |----------------------------------------------------------------------------|
C |----------------------------------------------------------------------------|
G |----------------------------------------------------------------------------|
C |-2-2-2-2-2-2-2-2-10-10-10-10-10-10-10-10-3-3-3-3-3-3-3-3-0-0-0-0-0-0-0-0----|X2

Chorus
F |--------------------------------------------------------------------------|
C |--------------------------------------------------------------------------|
G |--------------------------------------------------------------------------|
C |-7-7-7-10-10-10-7-7-7-10-10-10-3-3-3-3-3-3-3-3----------------------------|

F |--------------------------------------------------------------------------|
C |--------------------------------------------------------------------------|
G |--------------------------------------------------------------------------|
C |-7-7-7-10-10-10-14-14-14-12-12-12-15-15-15-15-15-15-15-15-----------------|X2

Breakdown
F |--------------------------------------------------------------------------|
C |--------------------------------------------------------------------------|
G |--------------------------------------------------------------------------|
C |-0-0----0----0---3-3-3-3-5-5-5-5------------------------------------------|X4
            
Hard to play? Try these video lessons and learn fast. | Correct




comments powered by Disqus
↑ Back to top | Tablatures and chords are parodies/interpretations of the original songs. You may use it for private study, scholarship, research or language learning purposes only