» » »

City To City Bass tabs (ver.1)

Artists:  A B C D E F G H I J K L M N O P Q R S T U V W X Y Z # 

City To City Bass tabs (ver.1)

Confide
Rating:
0/5 (0 votes)

Hard to play? Try these video lessons and learn fast.
                Intro
F |------------------------------------------------------------------------|
C |------------------------------------------------------------------------|
G |------------------------------------------------------------------------|
C |-5-5--5-5--1-----3------5-5--5----1------3------------------------------|X2

Part1
"is it too much to ask for..."
F |------------------------------------------------------------------------|
C |------------------------------------------------------------------------|
G |------------------------------------------------------------------------|
C |-5-5-5--5-5-5--5-5-5--0-0-0-0-5-5-5--5-5-5--5-5-5-0-0-0-0-1----3---3/12-|X2

Part 2
"its not too hard to believe..."
F |------------------------------------------------------------------------|
C |------------------------------------------------------------------------|
G |------------------------------------------------------------------------|
C |-0--------0----------0---0----------0----0--------0----0--------0----0--|

Chorus
F |------------------------------------------------------------------------|
C |------------------------------------------------------------------------|
G |------------------------------------------------------------------------|
C |-5-5-5-5-5-5-5-5-5-1-1-1-3-3-3-3-3--------------------------------------|X2

Part3
F |------------------------------------------------------------------------|
C |------------------------------------------------------------------------|
G |------------------------------------------------------------------------|
C |-5--------8--------1-------1---3----------------------------------------|X2

Outro
F |------------------------------------------------------------------------|
C |------------------------------------------------------------------------|
G |---------------3-1------------------------------------------------------|
C |-5-5-----1-1-------3--5-5-----1-1---3-3---------------------------------|X5
            
Hard to play? Try these video lessons and learn fast. | Correct




comments powered by Disqus
↑ Back to top | Tablatures and chords are parodies/interpretations of the original songs. You may use it for private study, scholarship, research or language learning purposes only