» » »

Confide, Can't See The Forest For The Trees Tabs (ver.1)

Artists:  A B C D E F G H I J K L M N O P Q R S T U V W X Y Z # 

Can't See The Forest For The Trees Tabs (ver.1)

Confide Tabs
 Rating:
4/5 (4 votes)
Can't See The Forest For The Trees lessons Tabs too difficult? Try these video lessons and learn fast
                Confide
Cant See The Forest For The Tree's (Lead Guitar)

Drop C Tunning

Example
D|-----------------|
A|-----------------|
F|-----------------|
C|-----------------|
G|-----------------|
C|-----------------|



Intro
D|8--8--8--8--8-----8--8--8--8--8-----8--------------------------------------|
A|-6--6--6--6--6-----6--6--6--6--6----6(delay)-------------------------------|
F|--9--9--9--9--9-----9--9--9--9--9---9--------------------------------------|
C|---------------------------------------------------------------------------|
G|---------------------------------------------------------------------------|
C|---------------------------------------------------------------------------|




"Spread out spread apart"
D|---------------------------------------------------------------------------|
A|---------------------------------------------------------------------------|
F|5555-555-557777-15151515-151515-151515151515-------------------------------|
C|----------------14141414-141414-141414141414-------------------------------|
G|5555-555-557777-13131313-131313-131313131313---2x--------------------------|
C|---------------------------------------------------------------------------|

D|---------------------------------------------------------------------------|
A|---------------------------------------------------------------------------|
F|----------------9999-999-999101010-----------------------------------------|
C|0000-000-000000------------------------------------------------------------|
G|0000-000-000000-8888-888-888888------2x------------------------------------|
C|0000-000-000000------------------------------------------------------------|




"Dancer! Dancer!"
D|---------------------------------------------------------------------------|
A|---------------------------------------------------------------------------|
F|--15---15--15--15---15--1515---15---15-15---15---15------------------------|
C|0-14-0-14-0140-14-0-14-01414-0-14-0-14014-0-14-0-140-----------------------|
G|0-13-0-13-0130-13-0-13-01313-0-13-0-13013-0-13-0-130-----------------------|
C|0----0----0--0----0----0-----0----0---0---0----0---0-----------------------|




Bridge
D|-------------------------------------------------------------------------------------|
A|-------------------------------------------------------------------------------------|
F|---17--15---------/14----------/14----------/17----------/15----------/14------------|
C|0-------x(5-times)--x(3-times)-/15-(4times)-/15(4-times)-/15(5-times)-/15(3-times)---|
G|0--15--13---------/13----------/13----------/13----------/13----------/13------------|
C|0------------------------------------------------------------------------------------|

D|---------------------------------------------------------------------------|
A|---------------------------------------------------------------------------|
F|-----10----------/9----------/9--------------------------------------------|
C|0--0--x(5-times)--x(2-times)-/10(2-times)--0-------------------------------|
G|0--0--8----------/8----------/8------------0-------------------------------|
C|0--0---------------------------------------0-------------------------------|

D|------------------------------------------------------------------------------|
A|------------------------------------------------------------------------------|
F|15---------/14----------/14----------/17--------------------------------------|
C|-x-(5-times)-x-(3-times)/15-(4-times)/15-(4-times)----------------------------|
G|13---------/13----------/13----------/13--------------------------------------|
C|------------------------------------------------------------------------------|

D|------------------------------------------------------------------------------|
A|------------------------------------------------------------------------------|
F|---17--10----------/9----------/9---------------------------------------------|
C|0-------x-(5-times)-x-(2-times)/10-(2-times)-0--------------------------------|
G|0--15---8----------/8----------/8------------0--------------------------------|
C|0--------------------------------------------0--------------------------------|



Intro
D|8--8--8--8--8-----8--8--8--8--8--------------------------------------------|
A|-6--6--6--6--6-----6--6--6--6--6-------------------------------------------|
F|--9--9--9--9--9-----9--9--9--9--9---2x-------------------------------------|
C|---------------------------------------------------------------------------|
G|---------------------------------------------------------------------------|
C|---------------------------------------------------------------------------|



"Time's Running Out And This Feeling"
D|---------------------------------------------------------------------------|
A|---------------------------------------------------------------------------|
F|5555-555-557777-15151515-151515-151515151515-------------------------------|
C|----------------14141414-141414-141414141414-------------------------------|
G|5555-555-557777-13131313-131313-131313131313---2x--------------------------|
C|---------------------------------------------------------------------------|

D|---------------------------------------------------------------------------|
A|---------------------------------------------------------------------------|
F|----------------9999-999-999101010-----------------------------------------|
C|0000-000-000000------------------------------------------------------------|
G|0000-000-000000-8888-888-888888------2x------------------------------------|
C|0000-000-000000------------------------------------------------------------|




"Dancer! Dancer!"
D|---------------------------------------------------------------------------|
A|---------------------------------------------------------------------------|
F|15---15---15-15---15---15---15---15--15--15---15--15-9---------------------|
C|14-0-14-0-14014-0-14-0-1400-14-0-14-0140-14-0-14-014-8---------------------|
G|13-0-13-0-13013-0-13-0-1300-13-0-13-0130-13-0-13-013-7---------------------|
C|---0----0---0---0----0---00----0----0--0----0----0-------------------------|



Ending
D|----------------12-----------------------------------------------------------|
A|----------------12-----------------------------------------------------------|
F|----------------12(harmonics)------------------------------------------------|
C|2-2-0-2020------12-----------------------------------------------------------|
G|2-2-0-2020------12-----------------------------------------------------------|
C|2-2-0-2020--2x--12-----------------------------------------------------------|

D|0---------------------------------------------------------------------------|
A|0---------------------------------------------------------------------------|
F|5---------------------------------------------------------------------------|
C|7(32-times)-----------------------------------------------------------------|
G|0---------------------------------------------------------------------------|
C|0---------------------------------------------------------------------------|

D|---------------------------------------------------------------------------|
A|---------------------------------------------------------------------------|
F|9-9---9-9------------------------------------------------------------------|
C|8-8-0-8080-----------------------------------------------------------------|
G|7-7-0-7070--8x-------------------------------------------------------------|
C|----0--0-0-----------------------------------------------------------------|
            
Submit corrections

comments powered by Disqus
↑ Back to top | Confide Tabs for Can't See The Forest For The Trees. Lyrics for acoustic guitar and electric guitar. Tablatures and chords are parodies/interpretations of the original songs. You may use it for private study, scholarship, research or language learning purposes only