>
 >
Walk Down The River

Walk Down The River Bass Tabs

Common Rider - Walk Down The River chords, tabs, tablatures, lyrics

Guitar lessons | Add/correct | Request | Top 50 tabs Artists:  A B C D E F G H I J K L M N O P Q R S T U V W X Y Z 0-9

Walk Down The River Bass Tabs – Common Rider

CD, Sheet music, Poster

Do you like Walk Down The River? Share with your friends now
Bass Tabs
-------------------------------------------------------------------------------
                      WALK DOWN THE RIVER - Common Rider
-------------------------------------------------------------------------------

Tuning: Standard

Intro
G|----------------------------------|
D|-444-----222----------------------|
A|-----------------22222222222222---|
E|-------------------------------00-|

Chorus 1
G|------------------------------------------------------------------------|
D|------------------------------------------------------------------------|
A|----4/9\4---6\44--4---4/9\4------------4/9\4---6\4---4---4/9\4----------|
E|-2--------7--------22---------------22-------7--------22----------------|

Verse 1
G|-----------------|
D|-----------------|
A|-----------------| x4
E|-22-22020-555565-|

Chorus 2
G|------------------------------------------------------------------------|
D|------------------------------------------------------------------------|
A|----4/9\4---6\44--4---4/9\4------------4/9\4---6\4---4---4/9\4----------|
E|-22-------7--------22---------------22-------7--------22----------------|

Verse 2
G|-----------------|
D|-----------------|
A|-----------------| x8
E|-22-22020-555565-|

Chorus 3
G|------------------------------------------------------------------------|
D|----------------------------------------------------------------242-----|
A|----4/9\4---6\44--4---4/9\4------------4/9\4---6\4---4---4/9\4-----420--|
E|-22-------7--------22---------------22-------7--------22--------------2-|

Sax Solo
G|---------------------------------|
D|---------------------------------|
A|---------------------------------| x4
E|-55-05-5--555543-22-02-2-0202-22-|

Bridge
G|-----------------111----------------------------------------------|
D|-444-----222-------------444-----555-----222-----4-44444444444444-|
A|------------------------------------------------------------------|
E|------------------------------------------------------------------|

Verse 3
G|-----------------|
D|-----------------|
A|-----------------| x4
E|-22-22020-555565-|

Chorus 3
G|------------------------------------------------------------------------|
D|----------------------------------------------------------------242-----|
A|----4/9\4---6\44--4---4/9\4------------4/9\4---6\4---4---4/9\4-----420--|
E|-22-------7--------22---------------22-------7--------22--------------2-|

G|------------------------------------------------------------------------|
D|------------------------------------------------------------------------|
A|----4/9\4---6\44--4---4/9\4----4-------4/9\4---6\4---4---4/9\4----4-----|
E|-22-------7--------22--------7------22-------7--------22--------7-------|

End
G|---------------------|
D|---------------------|
A|---------------------|
E|-5--0/5----555543--2-|


===============================================================================





Comments


Popular Common Rider tabs & chords
Deep Spring Bass Tabs
On Broadway Bass Tabs
Small Pebble Bass Tabs
Classics Of Love Tabs
Classics Of Love 1 Tabs
Firewall Tabs
Insurgents 1 Tabs
Rough Redemption Tabs
Signal Signal 1 Tabs
Dixie Roadrash Ukulele


Song lyrics



↑ Back to top | Tablatures and chords are parodies/interpretations of the original songs. You may use it for private study, scholarship, research or language learning purposes only
© 2014 AZChords.com Contact us | Privacy policy | DMCA | Add/correct tabs | Request tabs | Top 50 tabs