» » »

True Rulers Tabs (ver.1)

Artists:  A B C D E F G H I J K L M N O P Q R S T U V W X Y Z # 

True Rulers Tabs (ver.1)

Common Rider
Rating:
0/5 (0 votes)

Hard to play? Try these video lessons and learn fast.
                after first time replace harmonic with the power chord after it
(12)(12)-----------------------------------------------------------------|---|-
--------12-12-12-12-12-12-7-7-7-7-7-7-7-7-----------------5-5-5-5-5-5-5-5|-x4|-
--------10-10-10-10-10-10-5-5-5-5-5-5-5-5-7-7-7-7-7-7-7-7-3-3-3-3-3-3-3-3|---|-
-----------------------------------------5-5-5-5-5-5-5-5-----------------|---|-
        pm***************************************************************      

-12-12-12-12-12-12-12-------|-------------------------------------------------
-12-13-12-15-12-13-12-------|-------------------------------------------------
-12-12-12-12-12-12-12-------|-------------------------------------------------
-12-12-12-12-12-12-12-10----|-------------------------------------------------
----------------------8--10-|-------------------------------------------------
-------------------------8--|-------------------------------------------------
                                                                              

-----------------|-------------------------------------|----------------------
-----------------|-------------------------------------|----------------------
-----------------|-------------------------------------|----------------------
-----7-7-----5-5-|----------77777777----------55555555-|----------------------
-5-5-5-5-7-7-3-3-|-55555555-55555555-77777777-33333333-|----------------------
-3-3-----5-5-----|-33333333----------55555555----------|----------------------
 ^Verse           ^Chorus                                                     

-------------------|-------------|----|---------------------------------------
-------------------|-------------|----|---------------------------------------
-------------------|-------------|----|---------------------------------------
-77777777-5-5------|-------------|-x4-|---------------------------------------
-55555555-3-3-5555-|-------------|----|-12-12-12-12--121212121212121212121212-
--------------3333-|-3---3h5h3-0-|----|-10-10-10-10--101010101010101010101010-
                                        ^Ending
            
Hard to play? Try these video lessons and learn fast. | Correct




comments powered by Disqus
↑ Back to top | Tablatures and chords are parodies/interpretations of the original songs. You may use it for private study, scholarship, research or language learning purposes only