>
 >
Small Pebble

Small Pebble Bass Tabs

Common Rider - Small Pebble chords, tabs, tablatures, lyrics

Guitar lessons | Add/correct | Request | Top 50 tabs Artists:  A B C D E F G H I J K L M N O P Q R S T U V W X Y Z 0-9

Small Pebble Bass Tabs – Common Rider

CD, Sheet music, Poster

Do you like Small Pebble? Share with your friends now
Bass TabsTabs
so i've been looking for this tab for forever and i couldn't ever find it,
so i decided to just write one cuz im sure im the not the only one who's
tried to find this song.  enjoy.

     intro
g|-----------------------------------------|
d|-----------------------------------------|
a|-----------------------------------------|
e|7---10-9-7---12-9-7-7-7--3-2--7---3-3-3-2|

    verse  (repeat as necessary)
g|--------------|
d|--------------|
a|--------------|
e|/7--5-7--3-2--|

      verse variation (played a few of times)
g|------------------------|
d|-------------5-7-5------|
a|---------5h7-------7-5--|
e|/7--5-7-----------------|

      pre chorus
g|------------2-4------|
d|--------2-4----------|
a|----2-4--------------|
e|7---------------0~-0~|

       chorus           ending #1  ending #2
g|-----4------7---------|-------|------|
d|---4------7--------7--|-----4-|------|
a|2-------5--------7----|---4---|------|
e|--------------5-------|2------|2-2-22|

      chorus to verse riff
g|-----4------7----------------------4-------7--------------|
d|---4------7---------7-------4----4-------7----------------|proceed into
a|2-------5---------7-------4---2-------5-------------------|verse riff
e|---------------5-------2---------------------5--/10-7--5-5|from here

intro
verse
pre chorus
chorus
chorus to verse
verse
pre chorus
chorus
chorus to verse
verse
pre chorus
chorus to chorus verse x2

and that's it. the verse riff serves as the bridge.  oh, and really listen for the verse 
its hard to hear sometimes.





Comments


Popular Common Rider tabs & chords
Conscious Burning Bass Tabs
Deep Spring Bass Tabs
Dogtown Bass Tabs
On Broadway Bass Tabs
Classics Of Love 1 Tabs
Firewall Tabs
Insurgents Tabs
Rough Redemption Tabs
Signal Signal 1 Tabs
Small Pebble Tabs


Song lyrics



↑ Back to top | Tablatures and chords are parodies/interpretations of the original songs. You may use it for private study, scholarship, research or language learning purposes only
© 2014 AZChords.com Contact us | Privacy policy | DMCA | Add/correct tabs | Request tabs | Top 50 tabs