>
 >
On Broadway

On Broadway Bass Tabs

Common Rider - On Broadway chords, tabs, tablatures, lyrics

Guitar lessons | Add/correct | Request | Top 50 tabs Artists:  A B C D E F G H I J K L M N O P Q R S T U V W X Y Z 0-9

On Broadway Bass Tabs – Common Rider

CD, Sheet music, Poster

Do you like On Broadway? Share with your friends now
Bass Tabs
-------------------------------------------------------------------------------
                             ON BROADWAY - Common Rider
-------------------------------------------------------------------------------

Tuning: Standard

Verse 1
G|------------------------------------------------------------------|
D|-2---------------2---------------2-------2-------2---2--0-2-0-----|
A|--------------------------------------------------------------2-0-|
E|------------------------------------------------------------------|

Chorus 1
G|------------------------------------------------------------------|
D|-2-222220--------0-00000------0-1-2-222220--------0---------------|
A|-----------2-3-4----------0-4---------------2-3-4---40------------|
E|---------3--------------------------------3------------3-0-000000-|

Verse 2
G|------------------------------------------------------------------|
D|-2-------------0-2-------------0-2-------2-------2---2--0-2-0-----|
A|--------------2---------------2-------------------------------2-0-|
E|------------------------------------------------------------------|

Chorus 2
G|------------------------------------------------------------------|
D|-2-222220--------0-00000------0-1-2-222220--------0---------------|
A|-----------2-3-4----------0-4---------------2-3-4---40------------|
E|---------3--------------------------------3------------3-0-000000-|

Solo
G|------------------------------------------------------------------|
D|---112233442211--1222-2221222-2-1---112233442211--1222-2221222-22-|
A|-22------------44-----------------22------------44----------------|
E|------------------------------------------------------------------|

G|---------------------------------------------------|
D|---2-0-------0--------------------0--0000----------|
A|-0-----4-0-4---4-------------------------01-1111-0-|
E|-----------------0---------------------------------|
               let ^ ring

Verse 3
G|------------------------------------------------------------------|
D|-2----------0----2----------0----2----------0----2----------0-----|
A|---------000--00---------000--00---------000--00---------000--00--|
E|------------------------------------------------------------------|

Chorus 3                                                   x3         
G|-------------------------------------------------|----------------|
D|-2-222220--------0-00000------0-1-2-222220-------|0-00------------|
A|-----------2-3-4----------0-4---------------2-3-4|----1-0---------|
E|---------3--------------------------------3------|--------0-00000-|

End
G|-----------|
D|-0---------|
A|-----1-----|
E|---------0-|


===============================================================================





Comments


Popular Common Rider tabs & chords
Classics Of Love Bass Tabs
Conscious Burning Bass Tabs
Walk Down The River Bass Tabs
Signal Signal Chords
Classics Of Love Tabs
Firewall Tabs
Insurgents Tabs
Insurgents 1 Tabs
Signal Signal 1 Tabs
Dixie Roadrash Ukulele


Song lyrics



↑ Back to top | Tablatures and chords are parodies/interpretations of the original songs. You may use it for private study, scholarship, research or language learning purposes only
© 2014 AZChords.com Contact us | Privacy policy | DMCA | Add/correct tabs | Request tabs | Top 50 tabs