» » »

Common Rider, Insurgents Tabs (ver.2)

Artists:  A B C D E F G H I J K L M N O P Q R S T U V W X Y Z # 

Insurgents Tabs (ver.2)

Common Rider Tabs
Rating:
0/5 (0 votes)
Insurgents lessons Tabs too difficult? Try these video lessons and learn fast
                Band: Common Rider
Tuning: Standard E A D G B E

That's one of Common Rider sickest song I guess. And the only
tab for that song was a bit wrong so I decided to write my own tab...
I think that the tab is kinda right... Enjoy it!

 | Intro                                       |
e|---------------------------------------------|
B|---------------------------------------------|
G|---------------------------------------------|
D|---14-14-141414-12-------12-12-141414--------|
A|-------------------14~----------------14~----|
E|---------------------------------------------|
 |                                             |
e|---------------------------------------------|
B|---------------------------------------------|
G|---------------------------------------------|
D|---14-14-141414-12-------12-12-141414-16~----|
A|-------------------14~-----------------------|
E|---------------------------------------------|

 | #1.Verse                                4x |
e|---------------------------------------------|
B|---------------------------------------------|
G|-----9-9-999-7-------7-7-999-----------------|
D|-----9-9-999-7-9~----7-7-999-9-999999--------|
A|-----7-7-777-5-9~----5-5-777-9-999999--------|
E|---------------7~------------7-777777--------|

 | #2.Verse                                2x |
e|---------------------------------------------|
B|---------------------------------------------|
G|----9-xxxxxx-7-xxxxxx------------------------|
D|----9-xxxxxx-7-xxxxxx-9-xxxxxx-9-xxxxxx------|
A|----7-xxxxxx-5-xxxxxx-9-xxxxxx-9-xxxxxx------|
E|----------------------7-xxxxxx-7-xxxxxx------|
 |                                             |
e|---------------------------------------------|
B|---------------------------------------------|
G|----9-xxxxxx-7-xxxxxx-7-7-999----------------|
D|----9-xxxxxx-7-xxxxxx-7-7-999-9-999999-------|
A|----7-xxxxxx-5-xxxxxx-5-5-777-9-999999-------|
E|------------------------------7-777777-------|
 |                                             |
e|---------------------------------------------|
B|---------------------------------------------|
G|---------------------------------------------|
D|---14-14-141414-12-------12-12-141414--------|
A|-------------------14~----------------14~----|
E|---------------------------------------------|
 |                                             |
e|---------------------------------------------|
B|---------------------------------------------|
G|---------------------------------------------|
D|---14-14-141414-12-------12-12-141414-16~----|
A|-------------------14~-----------------------|
E|---------------------------------------------|

 | Chorus                                   2x |
e|---------------------------------------------|
B|---------------------------------------------|
G|----9-9-999-7-----------7-7-999--------------|
D|----9-9-999-7-9-999999--7-7-999-9-999999-----|
A|----7-7-777-5-9-999999--5-5-777-9-999999-----|
E|--------------7-777777----------7-777777-----|

 | Solo                                     2x |
e|---------------------------------------------|
B|---------------------------------------------|
G|---------------------------------------------|
D|--12121212-1212-1212-12-14141414--14-12------|
A|--------------------------------14------14^~-|
E|---------------------------------------------|

 | Bridge                                      |
e|---------------|B|--------------|B|----------|
B|---------------|R|--------------|R|----------|
G|-------777-----|E|------777-----|E|----------|
D|----99-777-9---|A|---99-777-9---|A|----------|
A|----99-555-9---|K|---99-777-9---|K|----------|
E|----77-----7---|!|---77-----7---|!|----------|
 |                                             |
e|---------------------------------------------|
B|---------------------------------------------|
G|-------7777----7777--------------------------|
D|----99-7777-99-7777-9~9~9~99~9~--------------|
A|----99-5555-99-5555-9~9~9~99~9~--------------|
E|----77------77------7~7~7~77~7~--------------|

 | Outro                                       |
e|---------------------------------------------|
B|---------------------------------------------|
G|-7-7-999----------7-7-999----------7-7-999---|
D|-7-7-999-9-999999-7-7-999-9-999999-7-7-999-9-|
A|-5-5-777-9-999999-5-5-777-9-999999-5-5-777-9-|
E|---------7-777777---------7-777777---------7-|

Order: Intro - #1.Verse - Chorus - #2.Verse
      Chorus - Solo - Bridge - Chorus - Outro

If you have any questions etc. Or just wanna talk about Common Rider or some sh*t:
            
Submit corrections

comments powered by Disqus
↑ Back to top | Common Rider Tabs for Insurgents. Lyrics for acoustic guitar and electric guitar. Tablatures and chords are parodies/interpretations of the original songs. You may use it for private study, scholarship, research or language learning purposes only