» » »

Common Rider, Firewall Tabs (ver.1)

Artists:  A B C D E F G H I J K L M N O P Q R S T U V W X Y Z # 

Firewall Tabs (ver.1)

Common Rider Tabs
 Rating:
4.2/5 (5 votes)
Firewall lessons Tabs too difficult? Try these video lessons and learn fast
                INTRO

   F#m                   F#m                    F#m           F#m
E --2----------2----------2----------------------2-------------2---------------|
B --2-------------2-------2----------------------2-------------2---------------|
D --2----------------2----2----------------------2-------------2---------------|
G --4---------------------4----------------------4-------------4---------------|
A --4---------------------4----------------------4-------------4---------------|
E --2---------------------2----------------------2-------------2---------------|

   F#m F#m        F#m F#m       F#m
E --2---2---X-X----2---2---X-X---2-----|
B --2---2---X-X----2---2---X-X---2-----|
D --2---2---X-X----2---2---X-X---2-----|
G --4---4---X-X----4---4---X-X---4-----|
A --4---4---X-X----4---4---X-X---4-----|
E --2---2---X-X----2---2---X-X---2-----|


VERSE (TELL ME WHAT WILL BECOME...)

   F#m F#m        F#m F#m       F#m
E --2---2---X-X----2---2---X-X---2-----|
B --2---2---X-X----2---2---X-X---2-----|
D --2---2---X-X----2---2---X-X---2-----|
G --4---4---X-X----4---4---X-X---4-----|
A --4---4---X-X----4---4---X-X---4-----|
E --2---2---X-X----2---2---X-X---2-----|


CHORUS  (FIREWALL - SO QUICK TO...)

    F#m  F#m      F#m F#m       F#m     A  A       A       A       A
E -- 9--- 9--X-X-- 9-- 9---X-X-- 9----4/5--5--X-X--5--X-X--5--X-X--5---|
B --10---10--X-X--10--10---X-X--10----4/5--5--X-X--5--X-X--5--X-X--5---|
D --11---11--X-X--11--11---X-X--11----5/6--6--X-X--6--X-X--6--X-X--6---|
G --11---11--X-X--11--11---X-X--11----6/7--7--X-X--7--X-X--7--X-X--7---|
A -- 9--- 9--X-X-- 9---9---X-X-- 9----6/7--7--X-X--7--X-X--7--X-X--7---|
E -----------X-X-----------X-X--------4/5--5--X-X--5--X-X--5--X-X--5---|

     Bm  Bm      Bm  Bm      Bm   D F#m     F#m     F#m
E ---7---7--X-X--7---7--X-X--7----2--2--X-X--2--X-X--2-----------------|
B ---7---7--X-X--7---7--X-X--7----2--2--X-X--2--X-X--2-----------------|
D ---7---7--X-X--7---7--X-X--7----2--2--X-X--2--X-X--2-----------------|
G ---9---9--X-X--9---9--X-X--9----4--4--X-X--4--X-X--4-----------------|
A ---9---9--X-X--9---9--X-X--9----4--4--X-X--4--X-X--4-----------------|
E ---7---7--X-X--7---7--X-X--7----2--2--X-X--2--X-X--2-----------------|


BRIDGE 1

E ------------------------------|
B ------------------------------|
D ------------------------------|
G ------------------------------|
A ------------------------------|
E ---3--3-3-0--3-3-3-4-3-3-3-3--|


VERSE (WHAT WILL BECOME OF THE...)

   F#m F#m        F#m F#m       F#m
E --2---2---X-X----2---2---X-X---2-----|
B --2---2---X-X----2---2---X-X---2-----|
D --2---2---X-X----2---2---X-X---2-----|
G --4---4---X-X----4---4---X-X---4-----|
A --4---4---X-X----4---4---X-X---4-----|
E --2---2---X-X----2---2---X-X---2-----|


CHORUS  (FIREWALL - SO QUICK TO...)

    F#m  F#m      F#m F#m       F#m     A  A       A       A       A
E -- 9--- 9--X-X-- 9-- 9---X-X-- 9----4/5--5--X-X--5--X-X--5--X-X--5---|
B --10---10--X-X--10--10---X-X--10----4/5--5--X-X--5--X-X--5--X-X--5---|
D --11---11--X-X--11--11---X-X--11----5/6--6--X-X--6--X-X--6--X-X--6---|
G --11---11--X-X--11--11---X-X--11----6/7--7--X-X--7--X-X--7--X-X--7---|
A -- 9--- 9--X-X-- 9---9---X-X-- 9----6/7--7--X-X--7--X-X--7--X-X--7---|
E -----------X-X-----------X-X--------4/5--5--X-X--5--X-X--5--X-X--5---|

     Bm  Bm      Bm  Bm      Bm   D F#m     F#m     F#m
E ---7---7--X-X--7---7--X-X--7----2--2--X-X--2--X-X--2-----------------|
B ---7---7--X-X--7---7--X-X--7----2--2--X-X--2--X-X--2-----------------|
D ---7---7--X-X--7---7--X-X--7----2--2--X-X--2--X-X--2-----------------|
G ---9---9--X-X--9---9--X-X--9----4--4--X-X--4--X-X--4-----------------|
A ---9---9--X-X--9---9--X-X--9----4--4--X-X--4--X-X--4-----------------|
E ---7---7--X-X--7---7--X-X--7----2--2--X-X--2--X-X--2-----------------|


BRIDGE 1

E ------------------------------|
B ------------------------------|
D ------------------------------|
G ------------------------------|
A ------------------------------|
E ---3--3-3-0--3-3-3-4-3-3-3-3--|


BRIDGE 2 pt. 1

     B  B       B  B       B B      B  B       B  B       A
E ---7--7--X-X--7--7--X-X--7-7------7--7--X-X--7--7--X-X--5----|
B ---7--7--X-X--7--7--X-X--7-7------7--7--X-X--7--7--X-X--5----|
D ---8--8--X-X--8--8--X-X--8-8------8--8--X-X--8--8--X-X--6----|
G ---9--9--X-X--9--9--X-X--9-9------9--9--X-X--9--9--X-X--7----|
A ---9--9--X-X--9--9--X-X--9-9------9--9--X-X--9--9--X-X--7----|
E ---7--7--X-X--7--7--X-X--7-7------7--7--X-X--7--7--X-X--5----|


BRIDGE 2 pt. 2

     B  B       B  B       B B          D5   A5   G5   C5
E ---7--7--X-X--7--7--X-X--7-7--X-X----------------------------|
B ---7--7--X-X--7--7--X-X--7-7--X-X----------------------------|
D ---8--8--X-X--8--8--X-X--8-8--X-X-----7--------------5-------|
G ---9--9--X-X--9--9--X-X--9-9--X-X-----7----7----5----5-------|
A ---9--9--X-X--9--9--X-X--9-9--X-X-----5----7----5----3-------|
E ---7--7--X-X--7--7--X-X--7-7--X-X----------5----3------------|


OTHER VERSE (THIS IS OUR TIME...)

   F#m F#m        F#m F#m       F#m
E --2---2---X-X----2---2---X-X---2-----|
B --2---2---X-X----2---2---X-X---2-----|
D --2---2---X-X----2---2---X-X---2-----|
G --4---4---X-X----4---4---X-X---4-----|
A --4---4---X-X----4---4---X-X---4-----|
E --2---2---X-X----2---2---X-X---2-----|


CHORUS  (FIREWALL - SO QUICK TO...)

    F#m  F#m      F#m F#m       F#m     A  A       A       A       A
E -- 9--- 9--X-X-- 9-- 9---X-X-- 9----4/5--5--X-X--5--X-X--5--X-X--5---|
B --10---10--X-X--10--10---X-X--10----4/5--5--X-X--5--X-X--5--X-X--5---|
D --11---11--X-X--11--11---X-X--11----5/6--6--X-X--6--X-X--6--X-X--6---|
G --11---11--X-X--11--11---X-X--11----6/7--7--X-X--7--X-X--7--X-X--7---|
A -- 9--- 9--X-X-- 9---9---X-X-- 9----6/7--7--X-X--7--X-X--7--X-X--7---|
E -----------X-X-----------X-X--------4/5--5--X-X--5--X-X--5--X-X--5---|

     Bm  Bm      Bm  Bm      Bm   D F#m     F#m     F#m
E ---7---7--X-X--7---7--X-X--7----2--2--X-X--2--X-X--2-----------------|
B ---7---7--X-X--7---7--X-X--7----2--2--X-X--2--X-X--2-----------------|
D ---7---7--X-X--7---7--X-X--7----2--2--X-X--2--X-X--2-----------------|
G ---9---9--X-X--9---9--X-X--9----4--4--X-X--4--X-X--4-----------------|
A ---9---9--X-X--9---9--X-X--9----4--4--X-X--4--X-X--4-----------------|
E ---7---7--X-X--7---7--X-X--7----2--2--X-X--2--X-X--2-----------------|


BRIDGE 1 (FIREWALL...)

E ------------------------------|
B ------------------------------|
D ------------------------------|
G ------------------------------|
A ------------------------------|
E ---3--3-3-0--3-3-3-4-3-3-3-3--|

ENDING (BURN...)

E -----------------------------------------14----|
B -----------------------------------------------|
D -----------------------------------------------|
G -----------------------------------------------|
A -----------------------------------------------|
E ---14--14-14-12--14-14-14-15-14-14-14-14-------|
            
Submit corrections

comments powered by Disqus
↑ Back to top | Common Rider Tabs for Firewall. Lyrics for acoustic guitar and electric guitar. Tablatures and chords are parodies/interpretations of the original songs. You may use it for private study, scholarship, research or language learning purposes only