>
 >
Dogtown

Dogtown Bass Tabs

Common Rider - Dogtown chords, tabs, tablatures, lyrics

Guitar lessons | Add/correct | Request | Top 50 tabs Artists:  A B C D E F G H I J K L M N O P Q R S T U V W X Y Z 0-9

Dogtown Bass Tabs – Common Rider

CD, Sheet music, Poster

Do you like Dogtown? Share with your friends now
Bass Tabs
-------------------------------------------------------------------------------
                            DOGTOWN - Common Rider
-------------------------------------------------------------------------------

Tuning: Standard

Intro
G|------------------------------------------------------------------|
D|------------------------------------------------------------------|
A|---------------------------------7-------------------------74-7-4-|
E|------------------------------------------------------------------|

G|------------------------------------------------------------------|
D|------------------------------------------------------------------|
A|-77777------------------7-74-7-4-77777-------------------7-74-7-4-|
E|--------7-77----5-55-5-5----------------7--77----5-55-5-5---------|

Verse 1
G|------------------------------------------------------------------|
D|------------------------------------------------------------------|
A|-77777------------------7-74-7-4-77777-------------------7-74-7-4-|
E|--------7-77----5-55-5-5----------------7--77----5-55-5-5---------|

Chorus 1
G|-----------------------------------------------------------------------------------|
D|----------------------------------------------------------------9--------7-7777777-|
A|--------7-75-44---------7-77------------7-77775-4--------------9--------7----------|
E|-5-5-555-------775-5-555----030405-5-555----------77-07707-7777---5-5-55-----------|

Verse 2
G|------------------------------------------------------------------|
D|------------------------------------------------------------------|
A|-77777------------------7-74-7-4-77777-------------------7-74-7-4-|
E|--------7-77----5-55-5-5----------------7--77----5-55-5-5---------|

Chorus 1
G|-----------------------------------------------------------------------------------|
D|----------------------------------------------------------------9--------7-7777777-|
A|--------7-75-44---------7-77------------7-77775-4--------------9--------7----------|
E|-5-5-555-------775-5-555----030405-5-555----------77-07707-7777---555555-----------|

Solo
G|---------------------------------|   |---------------------------------|
D|---------------------------------|   |--------10----10---------9---9---|
A|-7----------------------7--------|x2 |-----10----10----10----9---9---9-|
E|---0-000-333222005-5-555--77-7---|   |-8------------------7------------|

Bridge
G|-----------------------------------------------------------------------|
D|-----------------------------------------------------------------------|
A|-7-------------------------------7-------------------------------------|
E|------------------------------797----------------------------------797-|

G|-------------------------------------------------------------------------------------------|
D|-------------------------------------------------------------------------------------------|
A|-7--------------5----------------7--------------5------------------------------------------|
E|------------------------5---------------7---------------5-55-5555/77777777-777-555-333-222-|

Chorus 3
G|-----------------------------------------------------------------------------------|
D|----------------------------------------------------------------9--------7-7777777-|
A|--------7-75-44---------7-77------------7-77775-4--------------9--------7----------|
E|-5-5-555-------775-5-555----030405-5-555----------77-07707-7777---555555-----------|

Chorus 4
G|-----------------------------------------------------------------------------------|
D|----------------------------------------------------------------9--------7-7777777-|
A|--------7-75-44---------7-77------------7-77775-4--------------9--------7----------|
E|-5-5-555-------775-5-555----030405-5-555----------77-07707-7777---5-5-55-----------|

End
G|-------------------------------------|
D|-------------------------------------|
A|-7-------------------------------7\0-|
E|-------------------------5-555555----|


===============================================================================





Comments


Popular Common Rider tabs & chords
Classics Of Love Bass Tabs
Conscious Burning Bass Tabs
Deep Spring Bass Tabs
Walk Down The River Bass Tabs
Dixie Roadrash Chords
Classics Of Love Tabs
Insurgents Tabs
Signal Signal Tabs
Signal Signal 1 Tabs
Dixie Roadrash Ukulele


Song lyrics



↑ Back to top | Tablatures and chords are parodies/interpretations of the original songs. You may use it for private study, scholarship, research or language learning purposes only
© 2014 AZChords.com Contact us | Privacy policy | DMCA | Add/correct tabs | Request tabs | Top 50 tabs