>
 >
Deep Spring

Deep Spring Bass Tabs

Common Rider - Deep Spring chords, tabs, tablatures, lyrics

Guitar lessons | Add/correct | Request | Top 50 tabs Artists:  A B C D E F G H I J K L M N O P Q R S T U V W X Y Z 0-9

Deep Spring Bass Tabs – Common Rider

CD, Sheet music, Poster

Do you like Deep Spring? Share with your friends now
Bass Tabs
-------------------------------------------------------------------------------
                             DEEP SPRING - Common Rider
-------------------------------------------------------------------------------

Tuning: Standard

Verse 1
G|----------------------------------------------------4---6-------|
D|--------------------------------4---------------4-----------4---|
A|------------------------------------4-------4-------------------|
E|----------------------------------------7-----------------------|

Chorus 1
G|----------------------64----------------------------------------------|
D|----6/7\6---------4-44--7-------------6/7\6---------4--4--4--4-4-4--4-|
A|7-77----------6-7-------------4-5-7-77----------6-7-----7---------7---|
E|---------7-777-----------5-555-------------7---7----------------------|

Verse 2
G|--------------------4---6---------------------------4---6-------|
D|4---------------4-----------4---4---------------4-----------4---|
A|----4-------4-----------------------4-------4-------------------|
E|--------7-------------------------------7-----------------------|

Chorus 2
G|----------------------64----------------------------------------------|
D|----6/7\6---------4-44--7-------------6/7\6---------4--4--4--4-4-4--4-|
A|7-77----------6-7-------------4-5-7-77----------6-7-----7---------7---|
E|---------7-777-----------5-555-------------7---7----------------------|

Solo
G|--------------------------------------------------------------|
D|--------------------------------------------------------------|
A|555---7777/9999---555---7777/99--99-555---7777/9999---555--777|
E|---5-----------99----5-----------------5-----------99----5----|

                                          x3
G|--------------------------------|----------------|-------6--6-6-66|
D|--------------------------------|-------7-7777777|------6--6-6----|
A|--------------------------------|------7---------|4-4444----------|
E|9-999999-99999999-999999-9999999|5-5555----------|----------------|

Verse 3
G|--------------------4---6---------------------------4---6-------|
D|4---------------4-----------4---4---------------4-----------4---|
A|----4-------4-----------------------4-------4-------------------|
E|--------7-------------------------------7-----------------------|

Chorus 3
G|----------------------64----------------------------------------------|
D|----6/7\6---------4-44--7-------------6/7\6---------4--4--4--4-4-4--4-|
A|7-77----------6-7-------------4-5-7-77----------6-7-----7---------7---|
E|---------7-777-----------5-555-------------7---7----------------------|

End Chorus (let last note ring)
G|----------------------64----------------------------------------------|
D|----6/7\6---------4-44--7-------------6/7\6---------4-----------------|
A|7-77----------6-7-------------4-5-7-77----------6-7-------------------|
E|---------7-777-----------5-555-------------7---7----------------------|


===============================================================================





Comments


Popular Common Rider tabs & chords
Conscious Burning Bass Tabs
Dogtown Bass Tabs
On Broadway Bass Tabs
Small Pebble Bass Tabs
Signal Signal Chords
Classics Of Love 1 Tabs
Insurgents Tabs
Signal Signal Tabs
True Rulers Tabs
Dixie Roadrash Ukulele


Song lyrics



↑ Back to top | Tablatures and chords are parodies/interpretations of the original songs. You may use it for private study, scholarship, research or language learning purposes only
© 2014 AZChords.com Contact us | Privacy policy | DMCA | Add/correct tabs | Request tabs | Top 50 tabs