>
 >
Conscious Burning

Conscious Burning Bass Tabs

Common Rider - Conscious Burning chords, tabs, tablatures, lyrics

Guitar lessons | Add/correct | Request | Top 50 tabs Artists:  A B C D E F G H I J K L M N O P Q R S T U V W X Y Z 0-9

Conscious Burning Bass Tabs – Common Rider

CD, Sheet music, Poster

Do you like Conscious Burning? Share with your friends now
Bass Tabs
Intro
G ----------------------------------------------------------|
D ----------------------------------------------------------|
A -222222...(Keep hitten this til 4 secs in. Let note ring)-
E ----------------------------------------------------------

Verse 1
Play this at 0.13 and again at 0.19
G --------------|
D --------------|
A -5555-0-2-0-2-|
E --------------|

0.21
G --------------------------|
D -----------4--------------|
A ---2----2----5555-0-2-0-2-|
E -2----2-------------------|

Chorus
G -----4----------------------------|
D ---4---4----2------2--------------|
A -2-------00---0--2---2-22222-00-2-|
E ----------------0-----------------|

Verse 2+3
G ------------------------------|
D ---------------4--------------|
A -2-0---2----2----5555-0-2-0-2-|
E -----2----2-------------------|

Interlude part (1.36) X4
G ---------------------------|
D ---------------------------|
A ----1-22-------------------|
E -22------2-33-000-5-0-0-1--|

Im pretty sure thats all right.

- Gilmore





Comments


Popular Common Rider tabs & chords
Classics Of Love Bass Tabs
Dogtown Bass Tabs
Walk Down The River Bass Tabs
Dixie Roadrash Chords
Classics Of Love Tabs
Insurgents Tabs
Insurgents 1 Tabs
Rough Redemption Tabs
True Rulers Tabs
Dixie Roadrash Ukulele


Song lyrics



↑ Back to top | Tablatures and chords are parodies/interpretations of the original songs. You may use it for private study, scholarship, research or language learning purposes only
© 2014 AZChords.com Contact us | Privacy policy | DMCA | Add/correct tabs | Request tabs | Top 50 tabs