>
 >
Classics Of Love 1

Classics Of Love 1 Guitar Tabs

Common Rider - Classics Of Love 1 chords, tabs, tablatures, lyrics

Guitar lessons | Add/correct | Request | Top 50 tabs Artists:  A B C D E F G H I J K L M N O P Q R S T U V W X Y Z 0-9

Classics Of Love 1 Guitar Tabs – Common Rider

CD, Sheet music, Poster

Do you like Classics Of Love 1? Share with your friends now
Bass TabsTabsTabs v2
Band: Common Rider
Tuning: Standard E A D G B E

That's a really great song of Common Rider...
Probably one of their very best shit I guess. And yeah...
Now I've edited the tab again 'cause now I've tabbed the right
tabs for it, so you can trust me: The tabs are kinda right!

 | Chords                              |
e|---7----7----9----|------------------|
B|---7----8----10---|------------------|
G|---8----9----11---|--------9----11---|
D|---9----9----11---|---9----9----11---|
A|---9----7----9----|---9----7----9----|
E|---7--------------|---7--------------|
     B    E    F#       B    E    F#

 | Verse                | Pre-Chorus   |
e|--x-7--x-7--x-7--x-9--|--7-7-7-7-77--|
B|--x-7--x-7--x-8--x-10-|--8-8-8-8-88--|
G|--x-8--x-8--x-9--x-11-|--9-9-9-9-99--|
D|--x-9--x-9--x-9--x-11-|--9-9-9-9-99--|
A|--x-9--x-9--x-7--x-9--|--7-7-7-7-77--|
E|--x-7--x-7------------|--------------|
 
 | Chorus                                 2x |
e|-------------------------------------------|
B|-------------------------------------------|
G|-------------------9999999-11111111111111--|
D|--999-999-999-9999-9999999-11111111111111--|
A|--999-999-999-9999-7777777-9-9-9-9-9-9-9---|
E|--777-777-777-7777-------------------------|

 | Interlude   
 | Rhythm Guitar                3x |                     |
e|--7-7-7-7-7-xx--9--9--9--7-7-xx--|--7-7-7-7-7-xx--9-~--|
B|--8-8-8-7-7-xx--10-10-10-7-7-xx--|--8-8-8-7-7-xx--10~--|
G|--9-9-9-8-8-xx--11-11-11-8-8-xx--|--9-9-9-8-8-xx--11~--|
D|--9-9-9-9-9-xx--11-11-11-9-9-xx--|--9-9-9-9-9-xx--11~--|
A|--7-7-7-9-9-xx--9--9--9--9-9-xx--|--7-7-7-9-9-xx--9-~--|
E|--------7-7-xx-----------7-7-xx--|--------7-7-xx----~--|
 | #2 Guitar (Background)                                |
e|---------|---------|---------|-------------------------|
B|---------|---------|---------|-------------------------|
G|---9^~ --|---9^~ --|---------|----11--11-11-9~---------|
D|---------|---------|---------|---9---9-----------------|
A|---------|---------|---------|-------------------------|
E|---------|---------|---------|-------------------------|
 
 | Outro                                     |
e|-----------7~----------------7~~-----------|
B|-----------7~----------------7~~-----------|
G|-----------8~----------------8~~-----------|
D|-----------9~----------------9~~-----------|
A|-----------9~----------------9~~-----------|
E|-----------7~----------------7~~-----------|
         Downstroke         Upstroke

Order: 12xVerse - Pre-Chorus - Chorus - 8xVerse - Pre-Chorus -
          Chorus - Interlude - 4xVerse - 2xChorus - Outro


some random noted: - If it's possible play the first 4 verses with an acoustic
                     guitar and than you kick in with the electric guitar...
                   - Play the verse with a ska-rhythm (ya know...)
                   - For the interlude ya need 2 guitars (If possible)
                     A rhythm and a distorted lead guitar. With the rhythm guitar
                     you play the regular shit and with the lead guitar
                     you've to play the little solo shit...

I'm sure the tab's kinda right now. The song's not very hard to play so
enjoy playin' Common Rider... And if you're lookin' for the bass tab for that
song just take a look at my profile - I also tabbed the bass tab for 'Classics of Love'
                   
If you have any questions or just wanna talk about how awesome Jesse Michaels is:





Comments


Popular Common Rider tabs & chords
Conscious Burning Bass Tabs
Deep Spring Bass Tabs
Dogtown Bass Tabs
Small Pebble Bass Tabs
Dixie Roadrash Chords
Signal Signal Chords
Insurgents 1 Tabs
Rough Redemption Tabs
Signal Signal Tabs
Signal Signal 1 Tabs


Song lyrics



↑ Back to top | Tablatures and chords are parodies/interpretations of the original songs. You may use it for private study, scholarship, research or language learning purposes only
© 2014 AZChords.com Contact us | Privacy policy | DMCA | Add/correct tabs | Request tabs | Top 50 tabs